Oops, an error
Loading. Please wait.
We have Chord Pro version of Lego House.
It's the closest thing you can get to the original song and it has interactive parts. Check out the tab »
×
2,910 views 12 this week
no commentswrite comment
1 2 3 4 5
x 5
add to favorites
×
Save as Personal and add changes to this tab that will be seen only by you. Learn more ›
×
You can save this tab as Personal to edit and correct it or add notes. All changes will be seen only by you. Learn more »
launch autoscroll
font size
0
reset
how to read this tab
guitar tuner
edit
Autoscroll
slow
fast
+/-
esc
set tempo
stop
-------------------------------------------------------------------------------
                             Lego House - Ed Sheeran(fingerstyle)
-------------------------------------------------------------------------------
Tabbed and Arranged by: Rafi Rahmanda

Tuning: Half-Step down

Intro
d#|-----------------------------3---3--|-----------------------------1---1----|
A#|---------3-----3--------------------|---------1-----1-------------1--------|
F#|-------5--------------3-------------|-------2-------------2-------2--------|
C#|-----5-------5-----5------5---------|-----2-------2-----2-----2------------|
G#|---3--------------------------------|---0----------------------------------|
D#|-----------------------------3------|-----------------------------1--------|

d#|-----------------------------3---3--|-----------------------------1---1----|
A#|---------3-----3--------------------|---------1-----1-------------1--------|
F#|-------5--------------3-------------|-------2-------------2-------2--------|
C#|-----5-------5-----5------5---------|-----2-------2-----2-----2------------|
G#|---3--------------------------------|---0----------------------------------|
D#|-----------------------------3------|-----------------------------1--------|

Verse
d#|------------------------------------|--------------------------------------|
A#|---------1-------------0h1--1--1--1-|---------------------0--0--0--0h2--2--|
F#|-------0-----0--0--0----------------|-------0------0-----------------------|
C#|-----2-----------------4------------|-----2------2------2------------------|
G#|---3---------3----------------------|---0-------------0---------0----------|
D#|------------------------------------|----------0---------------------------|

d#|------------------------------------|---------------------------------1--1-|
A#|---------1--------------------------|---------------------------------1----|
F#|-------0-----0--0---0h2--0--0-------|-------0--0----------0--------0--2----|
C#|-----2------------------------------|-----2-------2-----------2------------|
G#|---3----------------3---------------|---0---------------0-------0----------|
D#|------------------------------------|---------------0-----------------1----|

d#|------------------------------------|---------------------------------0--0-|
A#|---------1-------------0h2--2--2--2-|-----------------------1h3--3--3------|
F#|-------0-----0--0--0----------------|-------0-----0--------0---------------|
C#|-----2-----------------4------------|-----2-----2------2--2----------------|
G#|---3---------3----------------------|---0------------0---------------------|
D#|------------------------------------|---------0----------------------------|

d#|-----------------------------3---0--|--------------------------------------|
A#|---------1----1-------------1-------|-------3h1----1-----------1h0---1-----|
F#|-------0-----------0-------0--------|-------------------0------------------|
C#|-----2------2----2-----2------------|-----2------2----2-----2--------------|
G#|---3----------------------3---------|---3----------------------------------|
D#|------------------------------------|--------------------------------------|

Bridge
d#|------------------------------------|--------------------------------------|
A#|------------------------------------|------------------------8p5-----------|
F#|------------------------------9-----|--------------------------------------|
C#|-----10-10-10-10-10-10-10h12--------|-----10-10-10-10-10-10----------------|
G#|------------------------------------|--------------------------------------|
D#|---8--------------------------------|---8----------------------------------|

d#|------------------------------------|--------------------------------------|
A#|------------------------------------|--------------------------------------|
F#|---------5---------------5----------|------------------------------9-------|
C#|-----7-----x---7------7----x--------|-----10-10-10-10-10-10-10h12----------|
G#|---0-------x------0--------x--------|--------------------------------------|
D#|-----------x---------------x---7-8--|---8----------------------------------|

d#|------------------------------------|---1--1p0--------------0--------------|
A#|------------------------------------|-----------3-----1---3----3-----1--1--|
F#|------------------------------------|--------------------------------------|
C#|-----10-10-10-10-10-10---x----------|--------------x--------------x--------|
G#|-------------------------x----------|---0----------x----0---------x--------|
D#|---8---------------------x----------|--------------x--------------x--------|

Chorus
d#|-----------------0----------------0-|-----------------0--3--3p0------------|
A#|---------1--1h3-----------1--1h3----|---------1--1h3---------------2-------|
F#|-------0----------------0-----------|-------2-------------------------4h7--|
C#|-----2----------------2-------------|-----2--------------------------------|
G#|---3---3----x-------3---3----x------|---0---0----x-------3------3--x-------|
D#|------------x----------------x------|------------x-----------------x-------|

d#|----------------------1--1p0--------|-------------------------0------------|
A#|-----------------------------2--1h3-|---------------1------3------3p1--1---|
F#|---------7-----5--------------------|---2-----2------------2------2--------|
C#|-----7------------------------------|---3-----3----------------------------|
G#|---5---5----x-----x----------x------|------------x-----x----------x--------|
D#|------------x-----x---3--3---x------|---1---1----x-----x---1------x--------|

d#|-----------------0----------------0-|-----------------0--3--3p0------------|
A#|---------1--1h3-----------1--1h3----|---------1--1h3---------------2-------|
F#|-------0----------------0-----------|-------2-------------------------4h7--|
C#|-----2----------------2-------------|-----2--------------------------------|
G#|---3---3----x-------3---3----x------|---0---0----x-------3------3--x-------|
D#|------------x----------------x------|------------x-----------------x-------|

d#|----------------------1--1p0--------|-------------------------0------------|
A#|-----------------------------2--1h3-|---------------1------3------3p1--1---|
F#|---------7-----5--------------------|---2-----2------------2------2--------|
C#|-----7------------------------------|---3-----3----------------------------|
G#|---5---5----x-----x----------x------|------------x-----x----------x--------|
D#|------------x-----x---3--3---x------|---1---1----x-----x---1------x--------|

d#|------------------------------------|--------------------------1---1-------|
A#|---------1---1--------1p0--1--------|---------1----1-----------1-----------|
F#|-------0---------3------------------|-------2-----------2------2-----------|
C#|-----2-----2---2----2---------------|-----2------2----2----2---------------|
G#|---3--------------------------------|---0----------------------------------|
D#|------------------------------------|--------------------------1-----------|

Verse 2
d#|------------------------------------|--------------------------------------|
A#|---------1-------------0h1--1--1--1-|--------------------0--0--0----0h1--1-|
F#|-------0------0--0--0---------------|-------0------0----0------------------|
C#|-----2-----x-----------4------------|-----2------------2---------x---------|
G#|---3-------x--3-----------------x---|---0--------x----0----------x---------|
D#|-----------x--------------------x---|---------0--x---------------x---------|

d#|------------------------------------|--------------------------------------|
A#|---------1--------------------------|--------------------------------------|
F#|-------0-----0--0--0h2--0--0--------|-------0--0-------0-0-0-0-------------|
C#|-----2-----x------------------------|-----2------2--2-----------2h3p2p0----|
G#|---3-------x-------3-------x--------|---0-----------x-------------------3--|
D#|-----------x---------------x--------|---------------x----------------------|

d#|------------------------------------|---------0-------1p0--0--1p0----------|
A#|---------1-------------0h1--1--1--1-|-------3---------0-------0-----3p1----|
F#|-------0------0--0--0---------------|--------------0--0-------0------------|
C#|-----2-----x-----------4------------|-----2--------------------------------|
G#|---3-------x--3-----------------x---|---0-------x-------------x------------|
D#|-----------x--------------------x---|-----------x-----0-------x------------|

d#|----------------------3--3--3-------|-----------0-----0-------0------------|
A#|---------1-----------1--------------|---1--1--3----------3--1-------3p1----|
F#|-------0-----0--0---0---------------|--------------------------------------|
C#|-----2-----x------------------x-----|--------------------------------------|
G#|---3-------x-------3----------x-----|------3------x------------------------|
D#|-----------x------------------x-----|-------------x------------------------|

Chorus
d#|-----------------0----------------1-|-----------------0--3--3p0------------|
A#|---------1--1h3-----------1--1h3----|---------1--1h3---------------2-------|
F#|-------0----------------0-----------|-------2-------------------------4h7--|
C#|-----2----------------2-------------|-----2--------------------------------|
G#|---3---3----x-------3---3----x------|---0---0----x-------3------3--x-------|
D#|------------x----------------x------|------------x-----------------x-------|

d#|----------------------1--1p0--------|-------------------------0------------|
A#|-----------------------------2--1h3-|---------------1------3------3p1--1---|
F#|---------7-----5--------------------|---2-----2------------2------2--------|
C#|-----7------------------------------|---3-----3----------------------------|
G#|---5---5----x-----x----------x------|------------x-----x----------x--------|
D#|------------x-----x---3--3---x------|---1---1----x-----x---1------x--------|

d#|-----------------0----------------1-|-----------------0--3--3p0------------|
A#|---------1--1h3-----------1--1h3----|---------1--1h3---------------2-------|
F#|-------0----------------0-----------|-------2-------------------------4h7--|
C#|-----2----------------2-------------|-----2--------------------------------|
G#|---3---3----x-------3---3----x------|---0---0----x-------3------3--x-------|
D#|------------x----------------x------|------------x-----------------x-------|

d#|----------------------1--1p0--------|-------------------------0------------|
A#|-----------------------------2--1h3-|---------------1------3------3p1--1---|
F#|---------7-----5--------------------|---2-----2------------2------2--------|
C#|-----7------------------------------|---3-----3----------------------------|
G#|---5---5----x-----x----------x------|------------x-----x----------x--------|
D#|------------x-----x---3--3---x------|---1---1----x-----x---1------x--------|

Interlude
d#|--------------3------3p0----0-------|---------------------+12--------------|
A#|---------1----------------3---3h1--1|---------1-----------+12--------------|
F#|-------2----------------------------|-------2------2------+12--------2-----|
C#|-----0------------------------------|-----3---------------+12--------3-----|
G#|-----------x-----x------------------|-----------x-----x---+12--------x-----|
D#|---3-------x-----x---3--------------|---1-------x-----x---+12--1--1--x-----|

d#|---5--3p0--3p0----------------------|---5--3--3------1h3--0-----------0----|
A#|---0------------2-------------------|---1-----------------0-----------0----|
F#|---0-------0------------------------|---1-----------------0----------------|
C#|----------------------------0-------|------------x-------------------------|
G#|-----------x----------------x-------|------------x--------------------x----|
D#|---3-------x----3----3---3--x-------|---1--------x--------1----1---1--x----|

Bridge
d#|------------------------------------|--------------------------------------|
A#|------------------------------------|------------------------8p5-----------|
F#|------------------------------9-----|--------------------------------------|
C#|-----10-10-10-10-10-10-10h12--------|-----10-10-10-10-10-10----------------|
G#|------------------------------------|--------------------------------------|
D#|---8--------------------------------|---8----------------------------------|

d#|------------------------------------|--------------------------------------|
A#|------------------------------------|--------------------------------------|
F#|---------5---------------5----------|------------------------------9-------|
C#|-----7---------7------7-------------|-----10-10-10-10-10-10-10h12----------|
G#|---0--------------0---------0-------|--------------------------------------|
D#|-------------------------------7h8--|---8----------------------------------|

d#|------------------------------------|---1--1p0--------------0--------------|
A#|------------------------------------|-----------3-----1---3----3-----1--1--|
F#|------------------------------------|--------------------------------------|
C#|-----10-10-10-10-10-10---x----------|--------------x--------------x--------|
G#|-------------------------x----------|---0----------x----0---------x--------|
D#|---8---------------------x----------|--------------x--------------x--------|

Chorus
d#|-----------------0----------------1-|-----------------0--3--3p0------------|
A#|---------1--1h3-----------1--1h3----|---------1--1h3---------------2-------|
F#|-------0----------------0-----------|-------2-------------------------4h7--|
C#|-----2----------------2-------------|-----2--------------------------------|
G#|---3---3----x-------3---3----x------|---0---0----x-------3------3--x-------|
D#|------------x----------------x------|------------x-----------------x-------|

d#|----------------------1--1p0--------|-------------------------0------------|
A#|-----------------------------2--1h3-|---------------1------3------3p1--1---|
F#|---------7-----5--------------------|---2-----2------------2------2--------|
C#|-----7------------------------------|---3-----3----------------------------|
G#|---5---5----x-----x----------x------|------------x-----x----------x--------|
D#|------------x-----x---3--3---x------|---1---1----x-----x---1------x--------|

d#|-----------------0----------------1-|-----------------0--3--3p0------------|
A#|---------1--1h3-----------1--1h3----|---------1--1h3---------------2-------|
F#|-------0----------------0-----------|-------2-------------------------4h7--|
C#|-----2----------------2-------------|-----2--------------------------------|
G#|---3---3----x-------3---3----x------|---0---0----x-------3------3--x-------|
D#|------------x----------------x------|------------x-----------------x-------|

d#|----------------------1--1p0--------|-------------------------0------------|
A#|-----------------------------2--1h3-|---------------1------3------3p1--1---|
F#|---------7-----5--------------------|---2-----2------------2------2--------|
C#|-----7------------------------------|---3-----3----------------------------|
G#|---5---5----x-----x----------x------|------------x-----x----------x--------|
D#|------------x-----x---3--3---x------|---1---1----x-----x---1------x--------|

d#|-----------------0----------------1-|-----------------0--3--3p0------------|
A#|---------1--1h3-----------1--1h3----|---------1--1h3---------------2-------|
F#|-------0----------------0-----------|-------2-------------------------4h7--|
C#|-----2----------------2-------------|-----2--------------------------------|
G#|---3---3----x-------3---3----x------|---0---0----x-------3------3--x-------|
D#|------------x----------------x------|------------x-----------------x-------|

d#|----------------------1--1p0--------|-------------------------0------------|
A#|-----------------------------2--1h3-|---------------1------3------3p1--1---|
F#|---------7-----5--------------------|---2-----2------------2------2--------|
C#|-----7------------------------------|---3-----3----------------------------|
G#|---5---5----x-----x----------x------|------------x-----x----------x--------|
D#|------------x-----x---3--3---x------|---1---1----x-----x---1------x--------|

d#|-----------------0----------------1-|-----------------0--3--3p0------------|
A#|---------1--1h3-----------1--1h3----|---------1--1h3---------------2-------|
F#|-------0----------------0-----------|-------2-------------------------4h7--|
C#|-----2----------------2-------------|-----2--------------------------------|
G#|---3---3----x-------3---3----x------|---0---0----x-------3------3--x-------|
D#|------------x----------------x------|------------x-----------------x-------|

d#|----------------------1--1p0--------|-------------------------0------------|
A#|-----------------------------2--1h3-|---------------1------3------3p1--1---|
F#|---------7-----5--------------------|---2-----2------------2------2--------|
C#|-----7------------------------------|---3-----3----------------------------|
G#|---5---5----x-----x----------x------|------------x-----x----------x--------|
D#|------------x-----x---3--3---x------|---1---1----x-----x---1------x--------|

d#|-----------------0--------------0---|-----------------0--3--3p0------------|
A#|---------1--1h3---------1---1h3-----|---------1--1h3-------------3---1h3---|
F#|------------------------------------|--------------------------------------|
C#|------------------------------------|--------------------------------------|
G#|---3--------------------------------|---0----------------------------------|
D#|------------------------------------|--------------------------------------|

d#|--------------0h1--0----------------|-----------------0--------------------|
A#|------1--1--1--------3--1h3---------|---1---1---1---3-----3p1---1----------|
F#|-----------------------------2------|--------------------------------------|
C#|-----------------------------3------|--------------------------------------|
G#|------------------------------------|--------------------------------------|
D#|---3-------------------------1------|--------------------------------------|



************************************

| /   slide up
| \   slide down
| h   hammer-on
| p   pull-off
| ~   vibrato
| +   harmonic
| x   Mute note
| b   Bend
| pb  Pre-bend
| br  Bend release
| pbr Pre-bend release
| brb Bend release bend

************************************

            
            
Suggest correction
Creating personal tab
Creating personal tab
You can edit any tab online and save it as your Personal.

You can edit, replace or remove any tab part or add personal notes – all changes will be seen only by you.

Personal tabs can be accessed anytime from any device, even offline.
Learn more »
comments
print report bad tab
guest
Wanna post a correction for this tab? Suggest correction