Oops, an error
Loading. Please wait.

Lego House Tab

version 2
version 2

Interactive

Video

522,589 views 414 this week
13 commentsread comments
1 2 3 4 5
x 208
add to favorites
launch autoscroll
font size
0
reset
how to read this tab
guitar tuner
Autoscroll
slow
fast
+/-
esc
set tempo
stop
Help us to improve Ultimate-Guitar.com Take our survey!
×
Hi :)
The other tab on here was only the verse, soo this is the rest


[Verse/Pre-chorus]

e|--------------------------------------------------------------------|
B|--------------------------------------------------------------------|
G|---4---4---4---4---4---4---4---4---4---4---4---4---4---4---4---4----|
D|---4---4---4---4---4---4---4---4---4---4---4---4---4---4---4---4----|
A|-2---2---2---2---2---2-------------------------------------------2--|
E|-------------------------2---2---4---4---4---4---4---4---0---0------|  x7


[Chorus]

e|-------------------------------------------------------------------|
B|-------------------------------------------------------------------|
G|---4---4---4---4---4---4---4---4---4---4---4---4---4---4---4---4---|
D|---4---4---4---4---4---4---4---4---4---4---4---4---4---4---4---4---|
A|-2---2---2---2---2---2---4---4-------------------------------------|
E|----------------------------------4---4---4---4---4---4---4---4----|

e|-------------------------------------------------------------------|
B|-------------------------------------------------------------------|
G|---4---4---4---4---4---4---4---4---4---4---4---4---4---4---4---4---|
D|---4---4---4---4---4---4---4---4---4---4---4---4---4---4---4---4---|
A|-------------------------------------------------------------------|
E|-2---2---2---2---2---2---2---4----0---0---0---0---0---0---0---2----|  x2


[Verse]

e|--------------------------------------------------------------------|
B|--------------------------------------------------------------------|
G|---4---4---4---4---4---4---4---4---4---4---4---4---4---4---4---4----|
D|---4---4---4---4---4---4---4---4---4---4---4---4---4---4---4---4----|
A|-2---2---2---2---2---2-------------------------------------------2--|
E|-------------------------2---2---4---4---4---4---4---4---0---0------|  x7


[Chorus]

e|-------------------------------------------------------------------|
B|-------------------------------------------------------------------|
G|---4---4---4---4---4---4---4---4---4---4---4---4---4---4---4---4---|
D|---4---4---4---4---4---4---4---4---4---4---4---4---4---4---4---4---|
A|-2---2---2---2---2---2---4---4-------------------------------------|
E|----------------------------------4---4---4---4---4---4---4---4----|

e|-------------------------------------------------------------------|
B|-------------------------------------------------------------------|
G|---4---4---4---4---4---4---4---4---4---4---4---4---4---4---4---4---|
D|---4---4---4---4---4---4---4---4---4---4---4---4---4---4---4---4---|
A|-------------------------------------------------------------------|
E|-2---2---2---2---2---2---2---4----0---0---0---0---0---0---0---2----|  x2


[Bridge]

e|-------------------------------------------------------------------|
B|-------------------------------------------------------------------|
G|---4---4---4---4---4---4---4---4---4---4---4---4---4---4---4---4---|
D|---4---4---4---4---4---4---4---4---4---4---4---4---4---4---4---4---|
A|-------------------------------------------------------------------|
E|-4---4---4---4---2---2---2---2---0---0---0---0---0---0---0---0-----|

e|-------------------------------------------------------------------|
B|-------------------------------------------------------------------|
G|---4---4---4---4---4---4---4---4---4---4---4---4---4---4---4---4---|
D|---4---4---4---4---4---4---4---4---4---4---4---4---4---4---4---4---|
A|-------------------------------------------------------------------|
E|-2---2---2---2---2---2---2---2---0---0---0---0---2---2---2---2-----|


[Pre-chorus]

e|--------------------------------------------------------------------|
B|--------------------------------------------------------------------|
G|---4---4---4---4---4---4---4---4---4---4---4---4---4---4---4---4----|
D|---4---4---4---4---4---4---4---4---4---4---4---4---4---4---4---4----|
A|-2---2---2---2---2---2-------------------------------------------2--|
E|-------------------------2---2---4---4---4---4---4---4---0---0------|  x7


[Chorus]

e|-------------------------------------------------------------------|
B|-------------------------------------------------------------------|
G|---4---4---4---4---4---4---4---4---4---4---4---4---4---4---4---4---|
D|---4---4---4---4---4---4---4---4---4---4---4---4---4---4---4---4---|
A|-2---2---2---2---2---2---4---4-------------------------------------|
E|----------------------------------4---4---4---4---4---4---4---4----|

e|-------------------------------------------------------------------|
B|-------------------------------------------------------------------|
G|---4---4---4---4---4---4---4---4---4---4---4---4---4---4---4---4---|
D|---4---4---4---4---4---4---4---4---4---4---4---4---4---4---4---4---|
A|-------------------------------------------------------------------|
E|-2---2---2---2---2---2---2---4----0---0---0---0---0---0---0---2----|  x2
Suggest correction
comments
print report bad tab
13 comments total. Showing first comments.
+18 reply
Stoufferthecat 50 Nov 21, 2011 01:57 PM

Nearly spot on. You just need the minor at the end of the intro and after the first chorus i.e.

e|------------|
B|------------|
G|---3---3----|
D|---4---4----|
A|---------2--|
E|-0---0------|

0 reply
Antarius 10 Jan 02, 2012 07:04 AM

Brilliant tab, and correction above makes it sound just perfect. Thanks for your work! :)

+1 reply
foolshaded 61 Jun 02, 2012 12:35 PM

lol what does "i.e." mean? anyway great tab dude

guest
You may want to rate the tab now too:
select rating
Wanna post a correction for this tab? Suggest correction