Oops, an error
Loading. Please wait.

Lego House Tab

version 5
version 5

Interactive

Video

1,964 views 42 this week
no commentswrite comment
1 2 3 4 5
3 more votes to show rating
add to favorites
launch autoscroll
font size
0
reset
how to read this tab
guitar tuner
Autoscroll
slow
fast
+/-
esc
set tempo
stop
Help us to improve Ultimate-Guitar.com Take our survey!
×
Author
Difficulty
intermediate
Tuning: Standard (EADGBe)

[Intro]
     B             F#    G#m           E           
e|-------------------------------------------|
B|-------------------------------------------|
G|-----4-4-4-4-4-4---3-3---4-4-4-4-4-4---4-4-|
D|-----4-4-4-4-4-4---4-4---4-4-4-4-4-4---4-4-|
A|---2---------------------------------------|
E|-----------------2-----4-------------0-----|

[Chorus]
     B               C#m   G#m             B     F#                  
e|---------------------------------------------------------|
B|---------------------------------------------------------|
G|-----4-4-4-4---4-4---4-4---4-4-4-4---4-4---4-4---3-3-3-3-|
D|-----4-4-4-4---4-4---4-4---4-4-4-4---4-4---4-4---4-4-4-4-| 
A|---2---------2-----4---------------------2---------------|
E|-------------------------4---------4-----------2---------|

           G#m   E             F#m
e|---------------------------------------|
B|---------------------------------------|
G|-----3-3---4-4---4-4-4-4-4-4---3-3-----|
D|-----4-4---4-4---4-4-4-4-4-4---4-4-----|
A|---------------------------------------|
E|---2-----4-----0-------------2---------|

 "   all...things...done...love you better now."
e|-------------------------2----------------|
B|-------------------------2----------------|
G|-----3-3---4-4-----9-----3----------------|
D|-----4-4---4-4-----9-----4----------------| 
A|-------------------7-----4----------------|
E|---2-----4---------------2----------------|

[Bridge chords] 
(strum)
   G#m        F#        E
        Don't hold me down
            F#
I think the braces are breaking
         E               F#
And it's more than I can take
B
 And it's dark in the cold December
                        F#       G#m            E
but I've got you to keep me warm
B
 If you're broken I will mend you
              F#               G#m                 E
And keep you sheltered from the storm that's raging on
B                       C#m       G#m
I'm out of touch, I'm out of love
                 B                      F#
I'll pick you up when you're getting down
                     G#m          E
And out of all these things I've done
           F#
I think I love you better now
B                       C#m       G#m
 I'm out of sight, I'm out of mind
                        B      F#               
I'll do it all for you in time
                     G#m          E
And out of all these things I've done
           F#
I think I love you better now
Suggest correction
Give kudos to tab author, rate the tab!
1 2 3 4 5
comments
print report bad tab
guest
You may want to rate the tab now too:
select rating
Wanna post a correction for this tab? Suggest correction