Oops, an error
Loading. Please wait.

Nancy Mulligan bass

version 1
version 1

Whole song

Interactive

403 views 18 this week
no commentswrite comment
1 2 3 4 5
3 more votes to show rating
add to favorites
×
Save as Personal and add changes to this tab that will be seen only by you. Learn more ›
×
You can save this tab as Personal to edit and correct it or add notes. All changes will be seen only by you. Learn more »
launch autoscroll
font size
0
reset
guitar tuner
edit
Autoscroll
slow
fast
+/-
esc
set tempo
stop
Author
Note: This is a bass tabbing corresponding to the Guitar Chord version submitted by pmalavi
(https://tabs.ultimate-guitar.com/e/ed_sheeran/nancy_mulligan_crd.htm)

The order of the song is as follows:

Intro (bass rests) x2
Verse 
Verse (bass rests)
Verse 
Chorus x2
Verse x3
Chorus x2
Interlude x2
Verse x2
Chorus x2
Interlude x2

I recommend listening to the tab to learn the timing of each note. Timing is included in the tab as well.

[Bass rests]                    
G|-------|-------|-------|-------|
D|-------|-------|-------|-------|
A|-------|-------|-------|-------|
E|-------|-------|-------|-------|

G|-------|-------|-------|-------|
D|-------|-------|-------|-------|
A|-------|-------|-------|-------|
E|-------|-------|-------|-------|

 [Verse]                         
G|-------|-------|-------|-------|
D|-------|0------|-------|--0----|
A|------3|-------|----3--|3------|
E|0------|----0--|0-----3|---0---|

 [Bass rests]
G|-------|-------|-------|-------|
D|-------|-------|-------|-------|
A|-------|-------|-------|-------|
E|-------|-------|-------|-------|

 [Verse]                         
G|-------|-------|-------|-------|
D|-------|0------|-------|--0----|
A|------3|-------|----3--|3------|
E|0------|----0--|0-----3|---0---|

 [Chorus]
G|-------|-------|-------|-------|
D|-------|0------|-------|--0----|
A|----3--|----3--|----3--|3------|
E|3-----3|------3|3-----3|----0--|
                       
G|-------|-------|-------|-------|
D|-------|0------|-------|--0----|
A|----3--|----3--|----3--|3------|
E|3-----3|------3|3-----3|----0--|

 [Verse]
G|-------|-------|-------|-------|
D|-------|0------|-------|--0----|
A|------3|-------|----3--|3------|
E|0------|----0--|0-----3|---0---|

G|-------|-------|-------|-------|
D|-------|0------|-------|--0----|
A|------3|-------|----3--|3------|
E|0------|----0--|0-----3|---0---|

G|-------|-------|-------|-------|
D|-------|0------|-------|--0----|
A|------3|-------|----3--|3------|
E|0------|----0--|0-----3|---0---|

 [Chorus]                        
G|-------|-------|-------|-------|
D|-------|0------|-------|--0----|
A|----3--|----3--|----3--|3------|
E|3-----3|------3|3-----3|----0--|

G|-------|-------|-------|-------|
D|-------|0------|-------|--0----|
A|----3--|----3--|----3--|3------|
E|3-----3|------3|3-----3|----0--|

 [Interlude]                     
G|-------|-------|-------|-------|
D|-------|0---0--|-------|0------|
A|----3--|-------|----3--|-------|
E|3-----3|-------|3-----3|----3--|

G|-------|-------|-------|-------|
D|-------|0---0--|-------|0------|
A|----3--|-------|----3--|-------|
E|3-----3|-------|3-----3|----3--|

 [Verse]                         
G|-------|-------|-------|-------|
D|-------|0------|-------|--0----|
A|------3|-------|----3--|3------|
E|0------|----0--|0-----3|---0---|

G|-------|-------|-------|-------|
D|-------|0------|-------|--0----|
A|------3|-------|----3--|3------|
E|0------|----0--|0-----3|---0---|

 [Chorus]
G|-------|-------|-------|-------|
D|-------|0------|-------|--0----|
A|----3--|----3--|----3--|3------|
E|3-----3|------3|3-----3|----0--|

G|-------|-------|-------|-------|
D|-------|0------|-------|--0----|
A|----3--|----3--|----3--|3------|
E|3-----3|------3|3-----3|----0--|

 [Interlude]                     
G|-------|-------|-------|-------|
D|-------|0---0--|-------|0------|
A|----3--|-------|----3--|-------|
E|3-----3|-------|3-----3|----3--|

G|-------|-------|-------|-------|
D|-------|0---0--|-------|0------|
A|----3--|-------|----3--|-------|
E|3-----3|-------|3-----3|----3--|

            
            
Suggest correction
Creating personal tab
Creating personal tab
You can edit any tab online and save it as your Personal.

You can edit, replace or remove any tab part or add personal notes – all changes will be seen only by you.

Personal tabs can be accessed anytime from any device, even offline.
Learn more »
Give kudos to tab author, rate the tab!
1 2 3 4 5
comments
print report bad tab
guest
You may want to rate the tab now too:
select rating
Wanna post a correction for this tab? Suggest correction