Oops, an error
Loading. Please wait.

Nina Tab

version 1
version 1

Whole song

514 views 18 this week
no commentswrite comment
1 2 3 4 5
x 3
add to favorites
launch autoscroll
font size
0
reset
how to read this tab
guitar tuner
×
Best way to learn
"Nina"
Autoscroll
slow
fast
+/-
esc
set tempo
stop
Author
Difficulty
Tuning
  follow
intermediate
E A D G B E
[Intro]
e|--5-----7--5-----5----5---------------------------|
B|--7-----7-----5--7----7------7------10------------|
G|--6--6--6--6--6---------7------7-------9----------|
D|--4--------------7----7----7-----7-------11-------|
A|--------7--------5----5-------------9-------9-----|
E|--------------------------------------------------|



[Verse]
 
e|-------x---x---------x---x-----x----x---------x----x--|
B|-------x---x---------x---x-----x----x---------x----x--|
G|-------x---x---------x---x-----x----x---------x----x--|
D|-------x---x---------x---x-----x----x---------x----x--|
A|--9--9-x-9-x--4--5-5-x-5-x-5-5-x--5-x-7--9--9-x--9-x--|
E|-------x---x---------x---x-----x----x---------x----x--|    X2



[Chorus]
e|-------------------------------------------------------|
B|--10-10---10---5--7-7----7----7-7----7--9--10-10---10--|
G|-------------------------------------------------------|
D|--11-11---11---6--7-7----7----7-7----7--9--11-11---11--|
A|--9--9----9----4--5-5----5----5-5----5--7--9--9----9---|
E|-------------------------------------------------------|   X15


[Verse 2 & beyond]
e |-------------------|---------------------------------------------|
B |-------------------|---------------------------------------------|
G |--7s9--4-6---4-----|------4-4s6-4-----------4-4s6-4-----------4--|
D |----------------7--|--4-7---------7-4---4-7---------7-4---4-7----|
A |-------------------|---------------------------------------------|
E |-------------------|---------------------------------------------|

[Outro]

e|--5-----7--5-----5----5---------------------------|
B|--7-----7-----5--7----7------7------10------------|
G|--6--6--6--6--6---------7------7-------9----------|
D|--4--------------7----7----7-----7-------11-------|
A|--------7--------5----5-------------9-------9-----|
E|--------------------------------------------------|


*******************
| x  mute
| XN repeat N times
*******************
Suggest correction
Give kudos to tab author, rate the tab!
1 2 3 4 5
comments
print report bad tab
guest
You may want to rate the tab now too:
select rating
Wanna post a correction for this tab? Suggest correction