Oops, an error
Loading. Please wait.

Perfect intro tab

version 1
version 1

Intro

Whole song

  • The whole song arranged without capo in the original key.
  • Full fingerstyle arrangement by Andrew Foy.

Interactive

8,917 views 231 this week
2 commentsread comments
1 2 3 4 5
x 18
add to favorites
×
Save as Personal and add changes to this tab that will be seen only by you. Learn more ›
×
You can save this tab as Personal to edit and correct it or add notes. All changes will be seen only by you. Learn more »
launch autoscroll
font size
0
reset
how to read this tab
guitar tuner
backing track
0:00
0:00
edit
Autoscroll
slow
fast
+/-
esc
set tempo
stop
Perfect - Ed Sheeran

Capo 1st fret

  G                          Em

e|-------------------------|-------------------------|
B|-3-3-3-3-3-3-3-3-3-3-3-3-|-3-3-3-3-3-3-3-3-3-3-3-3-|
G|-0-0-0-0-0-0-0-0-0-0-0-0-|-0-0-0-0-0-0-0-0-0-0-0-0-|
D|-------------------------|-------------------------|
A|-------------------------|-------------------------|
E|-3-----------------------|-0-----------------------|


  Cadd9                     D (and Dsus4)

e|-------------------------|-2-2-2-2-2-2-3-2-3-2-2-2-|
B|-3-3-3-3-3-3-3-3-3-3-3-3-|-3-3-3-3-3-3-3-3-3-3-3-3-|
G|-0-0-0-0-0-0-0-0-0-0-0-0-|-2-2-2-2-2-2-2-2-2-2-2-2-|
D|-------------------------|-0-----------------------|
A|-3-----------------------|-------------------------|
E|-------------------------|-------------------------|

___________
For Melissa

            
            
Suggest correction
Creating personal tab
Creating personal tab
You can edit any tab online and save it as your Personal.

You can edit, replace or remove any tab part or add personal notes – all changes will be seen only by you.

Personal tabs can be accessed anytime from any device, even offline.
Learn more »
comments
print report bad tab
2 comments total.
0 reply
Richarddrummer 10 Mar 08, 2017 06:45 AM

Check this guy Lesson/Tab.It's amazing, super complete: https://youtu.be/1nntIEMm6zQ

0 reply
matteo2003car 10 Apr 20, 2017 09:51 AM

👍

guest
You may want to rate the tab now too:
select rating
Wanna post a correction for this tab? Suggest correction