Oops, an error
Loading. Please wait.

Perfect chords

version 3
version 3

Whole song

  • More accurate chord shapes, corrected chord alignm... Show more
  • Because I added more notes to the chords so it wil... Show more
  • Try this option played on a key without capo under standard tuning.

Interactive

Video

  • High quality, easy to follow video lesson.
33,106 views 1,197 this week
2 commentsread comments
1 2 3 4 5
x 7
add to favorites
×
Save as Personal and add changes to this tab that will be seen only by you. Learn more ›
×
You can save this tab as Personal to edit and correct it or add notes. All changes will be seen only by you. Learn more »
launch autoscroll
font size
0
reset
transpose
0
reset
display chords
guitar tuner
backing track
0:00
0:00
edit
Autoscroll
slow
fast
+/-
esc
set tempo
stop
Author
Difficulty
Strumming
There is no strumming pattern for this song yet. and get +5 IQ
[Intro]
G#

[Verse]
    G#                                     Fm
e|--------4----------|--------4----------|--------1-----------|--------1-------|
B|--------4----------|--------4----------|--------1-----------|--------1-------|
G|--------5----------|--------5----------|--------1-----------|--------1-------|
D|------6-6---6------|------6-6---6------|------3-3---3-------|------3-3---3---|
A|----6---6-----6----|----6---6-----6----|----3---3-----3-----|----3---3-----3-|
E|--4-----4----------|--4-----4----------|--1-----1-------1---|--1-----1-------|

    C#                                     D#
e|--------4--------|--------4--------|--------6-------|--------6-------|
B|--------6--------|--------6--------|--------8-------|--------8-------|
G|------6-6---6----|------6-6---6----|------8-8---8---|------8-8---8---|
D|----6---6-----6--|----6---6-----6--|----8---8-----8-|----8---8-----8-|
A|--4-----4--------|--4-----4--------|--6-----6-------|--6-----6-------|
E|-----------------|-----------------|----------------|----------------|  (x2)

[Verse]
           G#      Fm
I found a love for me
               C#                         D#
Darling just dive right in, and follow my lead
                G#                 Fm
Well I found a girl beautiful and sweet
          C#                                  D#
I never knew you were the someone waiting for me


[Pre-Chorus]
    G#                                     Fm
e|--------4----------|--------4----------|--------1-----------|--------1-------|
B|--------4----------|--------4----------|--------1-----------|--------1-------|
G|--------5----------|--------5----------|--------1-----------|--------1-------|
D|------6-6---6------|------6-6---6------|------3-3---3-------|------3-3---3---|
A|----6---6-----6----|----6---6-----6----|----3---3-----3-----|----3---3-----3-|
E|--4-----4----------|--4-----4----------|--1-----1-------1---|--1-----1-------|

    C#                                     D#
e|--------4--------|--------4--------|--------6-------|--------6-------|
B|--------6--------|--------6--------|--------8-------|--------8-------|
G|------6-6---6----|------6-6---6----|------8-8---8---|------8-8---8---|
D|----6---6-----6--|----6---6-----6--|----8---8-----8-|----8---8-----8-|
A|--4-----4--------|--4-----4--------|--6-----6-------|--6-----6-------|
E|-----------------|-----------------|----------------|----------------|  (x2)


[Pre-Chorus]
                                 G#
Cause we were just kids when we fell in love
            Fm                      C#               G# D#
Not knowing what it was, I will not give you up this ti-me
                 G#                          Fm
But darling just kiss me slow, your heart is all I own
             C#                 D#
And in your eyes you’re holding mine


[Chorus]
      Fm  C#             G#         D#             Fm
Baby, I’m dancing in the dark, with you between my arms
C#              G#     D#               Fm
Barefoot on the grass, listening to our favorite song
         C#                G#                D#            Fm
When you said you looked a mess, I whispered underneath my breath
        C#                G#       D#        G#     
But you heard it, darling you look perfect tonight

G#  D#  Fm  D#  C#  C#  D#  D#   


[Verse]
               G#                   Fm
Well I found a woman, stronger than anyone I know
              C#                                         D#
She shares my dreams, I hope that someday I’ll share her home
          G#             Fm
I found a love, to carry more than just my secrets
         C#                             D#
To carry love, to carry children of our own


[Pre-Chorus]
                             G#                    Fm 
We are still kids, but we’re so in love, fighting against all odds
                  C#              G#  D#
I know that we’ll be alright this ti-ime
             G#                             Fm 
Darling just hold my hand, be my girl, I’ll be your man
          C#            D#
I see my future in your eyes


[Chorus]
      Fm  C#             G#         D#             Fm
Baby, I’m dancing in the dark, with you between my arms
C#                G#    D#              Fm
Barefoot on the grass, listening to our favorite song
       C#              G#                D#      
When I saw you in that dress, looking so beautiful
  Fm      C#                  G#       D#        G#     
I don't deserve this, darling you look perfect tonight


[Bridge]
G#  Fm  C#  D#  G#*  D#*      * = played once (Chord placement shown below)

[Solo]
    G#                         Fm                                 C#                D#    G# D#
e|-------------------|-------------------|------------------------------|-------------------------|
B|-------------------|-------------------|------------------------------|-------------------------|
G|-------------------|-------------------|------------------------------|-------------------------|
D|------6--8/10~~~~--|-10p8\6--8~p6~h8p6-|------6--8/10~~~~-8p6-8-8/11~~|--8p6---8--8~~~--6--5~~~~|
A|--6h8--------------|-------------------|--6h8-------------------------|-------------------------|
E|-------------------|-------------------|------------------------------|-------------------------|



[Chorus]
D# G#  Fm  C#             G#         D#             Fm
Ba-by, I’m dancing in the dark, with you between my arms
C#              G#     D#               Fm
Barefoot on the grass, listening to our favorite song
       C#              G#              D#            Fm
I have faith in what I see, now I know I have met an angel
   C#          G#        D#             
In person, and she looks perfect tonight
     Bbm     C#        D#                 G#
No I don't deserve it, you look perfect tonight

[Outro]
G#  D#  Fm  D#  C#  C#  D#  D#  G#


Please rate if you liked it
************************************

| p  Pull-off
| h  hammer-on
| /  Slide up
| \  Slide down
| ~  Vibrato

************************************

            
            
Suggest correction
Creating personal tab
Creating personal tab
You can edit any tab online and save it as your Personal.

You can edit, replace or remove any tab part or add personal notes – all changes will be seen only by you.

Personal tabs can be accessed anytime from any device, even offline.
Learn more »
comments
print report bad tab
2 comments total.
-1 reply
milocoombs71 10 Mar 25, 2017 06:12 PM

didn't like this contribution

+1 reply
animeshmilli20 10 Jul 14, 2017 02:51 AM

this version is the perfect one..listen carefully with a bass headphone and u will get what u need.

guest
You may want to rate the tab now too:
select rating
Wanna post a correction for this tab? Suggest correction