Oops, an error
Loading. Please wait.
We have an official Photograph tab made by UG professional guitarists. Check out the tab »
×
26,509 views 381 this week
no commentswrite comment
1 2 3 4 5
x 6
add to favorites
×
Save as Personal and add changes to this tab that will be seen only by you. Learn more ›
×
You can save this tab as Personal to edit and correct it or add notes. All changes will be seen only by you. Learn more »
launch autoscroll
font size
0
reset
how to read this tab
guitar tuner
backing track
0:00
0:00
edit
Autoscroll
slow
fast
+/-
esc
set tempo
stop
Author
Difficulty
-------------------------------------------------------------------------------
                             Photograph - Ed Sheeran
-------------------------------------------------------------------------------
Tabbed by: Nick
E-mail: icedmonkey47@gmail.com

Tuning: Standard


Chords to know:

      C          Am        Cmaj9/G         F
e|----0----------0------------0------------1----------------------------------------|
B|----1----------1------------1------------1----------------------------------------|
G|----0----------2------------0------------2----------------------------------------|
D|----2----------2------------0------------3----------------------------------------|
A|----3----------0------------2------------3----------------------------------------|
E|----------------------------3------------1--------------------------------------|

Here is another way to play this song; it's perhaps a little easier.


Capo 4


[Intro]

e|---------------------------------------------------------------------------|
B|-----1--0--1----------------1--0--1----------------------------------------|
G|----------------0----------------------0-----------------------------------|
D|-------------------3--2-------------------3--2-----------------------------|
A|--3----------------------3-------------------------------------------------|
E|---------------------------------------------------------------------------|

e|---------------------------------------------------------------------------|
B|-----1--0--1----------------1--0--1----------------------------------------|
G|----------------0----------------------0-----------------------------------|
D|-------------------3--2-------------------3--2-----------------------------|
A|--0----------------------0-------------------------------------------------|
E|---------------------------------------------------------------------------|

e|---------------------------------------------------------------------------|
B|-----1--0--1----------------1--0--1----------------------------------------|
G|----------------0----------------------0-----------------------------------|
D|-------------------3--2-------------------3--2-----------------------------|
A|---------------------------------------------------------------------------|
E|--3----------------------3-------------------------------------------------|

e|---------------------------------------------------------------------------|
B|-----1--0--1-------------1~~~~---------------------------------------------|
G|----------------0--------0~~~~---------------------------------------------|
D|-------------------3--2--2~~~~---------------------------------------------|
A|--3----------------------3~~~~---------------------------------------------|
E|---------------------------------------------------------------------------|


[Verse]
           C                Am
Loving can hurt, loving can hurt sometimes
              Cmaj9/G                   F
 But it's the only thing that I know
              C                         Am
 When it gets hard, you know it can get hard sometimes
          Cmaj9/G                              F
 It is the only thing that makes us feel alive


[Pre-Chorus]
Am                      F
We keep this love in a photograph
C                          Cmaj9/G
 We made these memories for ourselves
           Am
 Where our eyes are never closing
 F
 Hearts are never broken
     C                     Cmaj9/G
 And time's forever frozen still


[Chorus]
           C
So you can keep me
                           Cmaj9/G
 Inside the pocket of your ripped jeans
                            Am
 Holding me closer 'til our eyes meet
                    F
 You won't ever be alone, wait for me to come home

e|---------------------------------------|
B|-----1--0--1----------------1--0--1----|
G|----------------0----------------------|
D|-------------------3--2----------------|
A|--3----------------------3-------------|
E|---------------------------------------|


[Verse]
            C               Am
Loving can heal, loving can mend your soul
              Cmaj9/G                       F
 And it's the only thing that I know, know
                      C
 I swear it will get easier,
                             Am
 Remember that with every piece of you
                  Cmaj9/G                                F
 Hm, and it's the only thing we take with us when we die


[Pre-Chorus]
Am                      F
We keep this love in a photograph
C                          Cmaj9/G
 We made these memories for ourselves
           Am
 Where our eyes are never closing
 F
 Hearts are never broken
     C                     Cmaj9/G
 And time's forever frozen still


[Chorus]
           C
So you can keep me
                           Cmaj9/G
 Inside the pocket of your ripped jeans
                            Am
 Holding me closer 'til our eyes meet
                    F
 You won't ever be alone


[Bridge]
           C
And if you hurt me
                        Cmaj9/G
 That's okay baby, only words bleed
                             Am
 Inside these pages you just hold me
                          F
 And I won't ever let you go
                     Am
 Wait for me to come home
                     F
 Wait for me to come home
                     C
 Wait for me to come home
                     Cmaj9/G
 Wait for me to come home


        C
You can fit me
                                           Cmaj9/G
 Inside the necklace you got when you were sixteen
                                Am
 Next to your heartbeat where I should be
                          F
 Keep it deep within your soul


           C
And if you hurt me
                              Cmaj9/G
 Well, that's okay baby, only words bleed
                             Am
 Inside these pages you just hold me
                          F
 And I won't ever let you go


[Outro]
            C                          Cmaj9/G
When I'm away, I will remember how you kissed me
                            Am
 Under the lamppost back on Sixth street
                                 F
 Hearing you whisper through the phone,
                      C
 "Wait for me to come home."

(Lyrics from metrolyrics)

            
            
Suggest correction
Creating personal tab
Creating personal tab
You can edit any tab online and save it as your Personal.

You can edit, replace or remove any tab part or add personal notes – all changes will be seen only by you.

Personal tabs can be accessed anytime from any device, even offline.
Learn more »
comments
print report bad tab
guest
You may want to rate the tab now too:
select rating
Wanna post a correction for this tab? Suggest correction