Oops, an error
Loading. Please wait.

Save Myself tab

262 views 42 this week
no commentswrite comment
1 2 3 4 5
3 more votes to show rating
add to favorites
×
Save as Personal and add changes to this tab that will be seen only by you. Learn more ›
×
You can save this tab as Personal to edit and correct it or add notes. All changes will be seen only by you. Learn more »
launch autoscroll
font size
0
reset
how to read this tab
guitar tuner
edit
Autoscroll
slow
fast
+/-
esc
set tempo
stop
About this tab version
Save Yourself by Ed Sheehan tab. If you just play the cords, strum once per chord. Was this info helpful? Yes No
[Verse]
    G           D           E           C           G           D           E           C
e|------------------------|-----------------------|-----------------------|-----------------------|
B|--------0-----------3---|-------0-----------1---|-------0-----------3---|-------0-----------1---|
G|-----0-----0-----2-----2|----0-----0-----0-----0|----0-----0-----2-----2|----0-----0-----0-----0|
D|--------------0---------|-----------------------|-------------0---------|-----------------------|
A|------------------------|-------------3---------|-----------------------|-------------3---------|
E|--3---------------------|-0---------------------|-3---------------------|-0---------------------|

    G           D           E     D      C           C           D           G           
e|------------------------|------------------------|-----------------------|-----------------------|
B|--------0-----------3---|-----0-----3--------1---|-------1-----------3---|-------0-----------0---|
G|-----0-----0-----2-----2|---0-----2-------0-----0|----0-----0-----2-----2|----0-----0-----0-----0|
D|--------------0---------|-------0----------------|-------------0---------|-----------------------|
A|------------------------|--------------3---------|-3---------------------|-----------------------|
E|--3---------------------|-0----------------------|-----------------------|-3-----------3---------|

    G           D           E           C           G           D           E           C
e|------------------------|-----------------------|-----------------------|-----------------------|
B|--------0-----------3---|-------0-----------1---|-------0-----------3---|-------0-----------1---|
G|-----0-----0-----2-----2|----0-----0-----0-----0|----0-----0-----2-----2|----0-----0-----0-----0|
D|--------------0---------|-----------------------|-------------0---------|-----------------------|
A|------------------------|-------------3---------|-----------------------|-------------3---------|
E|--3---------------------|-0---------------------|-3---------------------|-0---------------------|

    G           D           E     D      C           C           D           G         
e|------------------------|------------------------|-----------------------|-----------------------|
B|--------0-----------3---|-----0-----3--------1---|-------1-----------3---|-------0-----------0---|
G|-----0-----0-----2-----2|---0-----2-------0-----0|----0-----0-----2-----2|----0-----0-----0-----0|
D|--------------0---------|-------0----------------|-------------0---------|-----------------------|
A|------------------------|--------------3---------|-3---------------------|-----------------------|
E|--3---------------------|-0----------------------|-----------------------|-3-----------3---------|   

[Chorus]
   C           G           D           G           C           G           D            E
e|-----------------------|-----------------------|-----------------------|--------------------------|
B|-------1-----------0---|-------3-----------0---|-------1-----------0---|--------3-----------0-----|
G|----0-----0-----0-----0|----2-----2-----0-----0|----0-----0-----0-----0|-----2-----2-----0-----0--|
D|-----------------------|-0---------------------|-----------------------|-0------------------------|
A|-3---------------------|-----------------------|-3---------------------|--------------------------|
E|-------------3---------|-------------3---------|-------------3---------|--------------0-----------|
  
   C           D           E     D      C                       A7                        Am7
e|-----------------------|------------------------|------------------------|------------------------|
B|-------1-----------3---|-----0-----3--------1---|-------1-----------2----|-------2-----------1----|
G|----0-----0-----2-----2|---0-----2-------0-----0|----0-----0-----0-----0-|----0-----0-----0-----0-|
D|-------------0---------|-------0----------------|-------------2----------|-2-----------2----------|
A|-3---------------------|--------------3---------|-3----------------------|------------------------|
E|-----------------------|-0----------------------|------------------------|------------------------|
   
   Am7                     G
e|------------------------|---------------------------|
B|--------1-----1---------|-------0------------0------|
G|-----0-----0--0---------|----0-----0-----0-------0--|
D|--2-----------2--------0|---------------------------|
A|-----------------2--3---|---------------------------|
E|------------------------|-3-----------3-------------|

[Verse 2]
    G           D           E           C           G           D           E           C
e|------------------------|-----------------------|-----------------------|-----------------------|
B|--------0-----------3---|-------0-----------1---|-------0-----------3---|-------0-----------1---|
G|-----0-----0-----2-----2|----0-----0-----0-----0|----0-----0-----2-----2|----0-----0-----0-----0|
D|--------------0---------|-----------------------|-------------0---------|-----------------------|
A|------------------------|-------------3---------|-----------------------|-------------3---------|
E|--3---------------------|-0---------------------|-3---------------------|-0---------------------|

    G           D           E     D      C           C           D           G           
e|------------------------|------------------------|-----------------------|-----------------------|
B|--------0-----------3---|-----0-----3--------1---|-------1-----------3---|-------0-----------0---|
G|-----0-----0-----2-----2|---0-----2-------0-----0|----0-----0-----2-----2|----0-----0-----0-----0|
D|--------------0---------|-------0----------------|-------------0---------|-----------------------|
A|------------------------|--------------3---------|-3---------------------|-----------------------|
E|--3---------------------|-0----------------------|-----------------------|-3-----------3---------|

    G           D           E           C           G           D           E           C
e|------------------------|-----------------------|-----------------------|-----------------------|
B|--------0-----------3---|-------0-----------1---|-------0-----------3---|-------0-----------1---|
G|-----0-----0-----2-----2|----0-----0-----0-----0|----0-----0-----2-----2|----0-----0-----0-----0|
D|--------------0---------|-----------------------|-------------0---------|-----------------------|
A|------------------------|-------------3---------|-----------------------|-------------3---------|
E|--3---------------------|-0---------------------|-3---------------------|-0---------------------|

    G           D           E     D      C           C           D           G         
e|------------------------|------------------------|-----------------------|-----------------------|
B|--------0-----------3---|-----0-----3--------1---|-------1-----------3---|-------0-----------0---|
G|-----0-----0-----2-----2|---0-----2-------0-----0|----0-----0-----2-----2|----0-----0-----0-----0|
D|--------------0---------|-------0----------------|-------------0---------|-----------------------|
A|------------------------|--------------3---------|-3---------------------|-----------------------|
E|--3---------------------|-0----------------------|-----------------------|-3-----------3---------|   

[Chorus]
   C           G           D           G           C           G           D            E
e|-----------------------|-----------------------|-----------------------|--------------------------|
B|-------1-----------0---|-------3-----------0---|-------1-----------0---|--------3-----------0-----|
G|----0-----0-----0-----0|----2-----2-----0-----0|----0-----0-----0-----0|-----2-----2-----0-----0--|
D|-----------------------|-0---------------------|-----------------------|-0------------------------|
A|-3---------------------|-----------------------|-3---------------------|--------------------------|
E|-------------3---------|-------------3---------|-------------3---------|--------------0-----------|
  
   C           D           E     D      C                       A7                        Am7
e|-----------------------|------------------------|------------------------|------------------------|
B|-------1-----------3---|-----0-----3--------1---|-------1-----------2----|-------2-----------1----|
G|----0-----0-----2-----2|---0-----2-------0-----0|----0-----0-----0-----0-|----0-----0-----0-----0-|
D|-------------0---------|-------0----------------|-------------2----------|-2-----------2----------|
A|-3---------------------|--------------3---------|-3----------------------|------------------------|
E|-----------------------|-0----------------------|------------------------|------------------------|
  
    Am7                     G
e|------------------------|---------------------------|
B|--------1-----1---------|-------0------------0------|
G|-----0-----0--0---------|----0-----0-----0-------0--|
D|--2-----------2--------0|---------------------------|
A|-----------------2--3---|---------------------------|
E|------------------------|-3-----------3-------------|

[Bridge]
    E                       D                       G                       C
e|------------------------|-----------------------|-----------------------|-------------------------|
B|--------0-----------0---|-------3-----------3---|-------0-----------0---|-------1-----------1-----|
G|-----0-----0-----0-----0|----2-----2-----2-----2|----0-----0-----0-----0|----0-----0-----0-----0--|
D|------------------------|-0-----------0---------|-----------------------|-------------------------|
A|------------------------|-----------------------|-----------------------|-3-----------3-----------|
E|--0-----------0---------|-----------------------|-3-----------3---------|-------------------------|
   
    E                       D                       G                       C 
e|------------------------|-----------------------|-----------------------|-------------------------|
B|--------0-----------0---|-------3-----------3---|-------0-----------0---|-------1-----------1-----|
G|-----0-----0-----0-----0|----2-----2-----2-----2|----0-----0-----0-----0|----0-----0-----0-----0--|
D|------------------------|-0-----------0---------|-----------------------|-------------------------|
A|------------------------|-----------------------|-----------------------|-3-----------3-----------|
E|--0-----------0---------|-----------------------|-3-----------3---------|-------------------------|
    
    C                        D                       E           D            C         
e|-------------------------|-----------------------|------------------------|-----------------------|
B|--------1------------1---|-------3-----------3---|-------0-----------3----|-------1-----------1---|
G|-----0-----0-----0------0|----2-----2-----2-----2|----0-----0-----2-----2-|----0-----0-----0-----0|
D|-------------------------|-0-----------0---------|-------------0----------|-----------------------|
E|--3-----------3----------|-----------------------|------------------------|-3-----------3---------|
E|-------------------------|-----------------------|-0----------------------|-----------------------|
   
    D                       Am7                     Am7         G
e|------------------------|-----------------------|-----------------------|--------------|
B|--------3-----------3---|-------1-----------1---|-1-----------------0---|-------0------|
G|-----2-----2-----2-----2|----0-----0-----0-----0|-0--------------0-----0|----0------0--|
D|--0-----------0---------|-2-----------2---------|-2--------0------------|--------------|
A|------------------------|-----------------------|----3--2---------------|--------------|
E|------------------------|-----------------------|-------------3---------|-3------------|

[Chorus]
   C           G           D           G           C           G           D            E
e|-----------------------|-----------------------|-----------------------|--------------------------|
B|-------1-----------0---|-------3-----------0---|-------1-----------0---|--------3-----------0-----|
G|----0-----0-----0-----0|----2-----2-----0-----0|----0-----0-----0-----0|-----2-----2-----0-----0--|
D|-----------------------|-0---------------------|-----------------------|-0------------------------|
A|-3---------------------|-----------------------|-3---------------------|--------------------------|
E|-------------3---------|-------------3---------|-------------3---------|--------------0-----------|
 
   C           D           E     D      C           C           A7                       Am7                       
e|-----------------------|------------------------|------------------------|------------------------|
B|-------1-----------3---|-----0-----3--------1---|-------1-----------2----|-------2-----------1----|
G|----0-----0-----2-----2|---0-----2-------0-----0|----0-----0-----0-----0-|----0-----0-----0-----0-|
D|-------------0---------|-------0----------------|-------------2----------|-2-----------2----------|
A|-3---------------------|--------------3---------|-3----------------------|------------------------|
E|-----------------------|-0----------------------|------------------------|------------------------|
  
                Am7         G                           Am7                     Am7         G
e|------------------------|---------------------------|-----------------------|-----------------------|
B|--------1-----1---------|-------0------------0------|-------1-----------1---|-1-----------------0---|
G|-----0-----0--0---------|----0-----0-----0-------0--|----0-----0-----0-----0|-0--------------0-----0|
D|--2-----------2--------0|---------------------------|-2-----------2---------|-2--------0------------|
A|-----------------2--3---|---------------------------|-----------------------|----3--2---------------|
E|------------------------|-3-----------3-------------|-----------------------|-------------3---------|
  
                Am7                     Am7         G
e|------------------------|-----------------------|-------------3--|
B|--------0-----------1---|-------1-----1---------|----------0-----|
G|-----0-----0-----0-----0|----0-----0--0---------|-------0--------|
D|--------------2---------|-2-----------2--------0|----0-----------|
A|------------------------|----------------3--2---|----------------|
E|--3---------------------|-----------------------|-3--------------|

            
            
Suggest correction
Creating personal tab
Creating personal tab
You can edit any tab online and save it as your Personal.

You can edit, replace or remove any tab part or add personal notes – all changes will be seen only by you.

Personal tabs can be accessed anytime from any device, even offline.
Learn more »
Give kudos to tab author, rate the tab!
1 2 3 4 5
comments
print report bad tab
guest
You may want to rate the tab now too:
select rating
Wanna post a correction for this tab? Suggest correction