Oops, an error
Loading. Please wait.
We have an official Shape Of You tab made by UG professional guitarists. Check out the tab »
×

Shape Of You tab

version 6
version 6

Whole song

  • A fairly straight forward fingerstyle interpretati... Show more
  • Standard Tuning. No capo necessary.
  • This tab of Shape of You by Ed Sheeran follows his... Show more
  • Easy to follow, fully structured with time frames.
  • Fingerstyle arrangement. Taken from this youtube v... Show more
  • Full fingerstyle arrangement by Andrew Foy.
  • This version includes all parts of the song, inclu... Show more

Interactive

Video

  • Easy to follow, high quality video lesson.
  • This is Mattias Krantz fingerstyle guitar tutorial... Show more
  • This is an depth video guitar lesson for the acous... Show more
2,365 views 66 this week
1 commentread comment
1 2 3 4 5
2 more votes to show rating
add to favorites
×
Save as Personal and add changes to this tab that will be seen only by you. Learn more ›
×
You can save this tab as Personal to edit and correct it or add notes. All changes will be seen only by you. Learn more »
launch autoscroll
font size
0
reset
how to read this tab
guitar tuner
backing track
0:00
0:00
edit
Autoscroll
slow
fast
+/-
esc
set tempo
stop
About this tab version
Easy to follow, fully structured with time frames. Was this info helpful? Yes No
===========================================
VIDEO LESSON TO ACCOMPANY THIS TAB:
https://www.youtube.com/watch?v=gxGYSVj2GFE
===========================================



==================================

CHORDS USED:

    C#m     F#m      A       B   
e|---9---|---2---|---5---|---7---|
B|---9---|---2---|---5---|---7---|
G|---9---|---2---|---6---|---8---|
D|---11--|---4---|---7---|---9---|
A|---11--|---4---|---7---|---9---|
E|---9---|---2---|---5---|---7---|

===================================


[INTRO x2]
0.00 - 0.09

GUITAR 1
e|----------------|----------------|----------------|----------------|
B|-------5--------|-------5--------|-------5--------|-4--------------|
G|-6-----------6--|-6-----------6--|-6-----------6--|-------6-----4--|
D|----------------|----------------|----------------|----------------|
A|----------------|----------------|----------------|----------------|
E|----------------|----------------|----------------|----------------|

GUITAR 2
e|-9-----9-----9---|-2-----2-----2---|-5-----5-----5---|-7-----7-----7---|
B|-9-----9-----9---|-2-----2-----2---|-5-----5-----5---|-7-----7-----7---|
G|-9-----9-----9---|-2-----2-----2---|-6-----6-----6---|-8-----8-----8---|
D|-11----11----11--|-4-----4-----4---|-7-----7-----7---|-9-----9-----9---|
A|-11----11----11--|-4-----4-----4---|-7-----7-----7---|-9-----9-----9---|
E|-9-----9-----9---|-2-----2-----2---|-5-----5-----5---|-7-----7-----7---|
   ...................................................................


[VERSE x4]
0.10 - 0.29
"The club isn't the best place to find a lover..."
GUITAR 2
e|-9-----9-----9---|-2-----2-----2---|-5-----5-----5---|-7-----7-----7---|
B|-9-----9-----9---|-2-----2-----2---|-5-----5-----5---|-7-----7-----7---|
G|-9-----9-----9---|-2-----2-----2---|-6-----6-----6---|-8-----8-----8---|
D|-11----11----11--|-4-----4-----4---|-7-----7-----7---|-9-----9-----9---|
A|-11----11----11--|-4-----4-----4---|-7-----7-----7---|-9-----9-----9---|
E|-9-----9-----9---|-2-----2-----2---|-5-----5-----5---|-7-----7-----7---|
   ...................................................................


[PRE-CHORUS x4]
0.30 - 0.49
"Girl you know I want your love..."
e|-9-----x-9----9--9--9--|-2----x-2---2-2-2-|-5----x-5---5-5-5-|-7----x-7---7-7-7-|
B|-9-----x-9----9--9--9--|-2----x-2---2-2-2-|-5----x-5---5-5-5-|-7----x-7---7-7-7-|
G|-9-----x-9----9--9--9--|-2----x-2---2-2-2-|-6----x-6---6-6-6-|-8----x-8---8-8-8-|
D|-11----x-11---11-11-11-|-4----x-4---4-4-4-|-7----x-7---7-7-7-|-9----x-9---9-9-9-|
A|-11----x-11---11-11-11-|-4----x-4---4-4-4-|-7----x-7---7-7-7-|-9----x-9---9-9-9-|
E|-9-----x-9----9--9--9--|-2----x-2---2-2-2-|-5----x-5---5-5-5-|-7----x-7---7-7-7-|


[CHORUS x8]
0.50 - 1.29
"I'm in love with the shape of you..."
e|-9-----9--9----9--9--9--|-2----2-2---2-2-2-|-5----5-5---5-5-5-|-7----7-7---7-7-7-|
B|-9-----9--9----9--9--9--|-2----2-2---2-2-2-|-5----5-5---5-5-5-|-7----7-7---7-7-7-|
G|-9-----9--9----9--9--9--|-2----2-2---2-2-2-|-6----6-6---6-6-6-|-8----8-8---8-8-8-|
D|-11----11-11---11-11-11-|-4----4-4---4-4-4-|-7----7-7---7-7-7-|-9----9-9---9-9-9-|
A|-11----11-11---11-11-11-|-4----4-4---4-4-4-|-7----7-7---7-7-7-|-9----9-9---9-9-9-|
E|-9-----9--9----9--9--9--|-2----2-2---2-2-2-|-5----5-5---5-5-5-|-7----7-7---7-7-7-|


[VERSE x4]
1.30 - 1.49
"One week in we let the story begin..."
e|-9-----9-----9---|-2-----2-----2---|-5-----5-----5---|-7-----7-----7---|
B|-9-----9-----9---|-2-----2-----2---|-5-----5-----5---|-7-----7-----7---|
G|-9-----9-----9---|-2-----2-----2---|-6-----6-----6---|-8-----8-----8---|
D|-11----11----11--|-4-----4-----4---|-7-----7-----7---|-9-----9-----9---|
A|-11----11----11--|-4-----4-----4---|-7-----7-----7---|-9-----9-----9---|
E|-9-----9-----9---|-2-----2-----2---|-5-----5-----5---|-7-----7-----7---|
   ...................................................................


[PRE-CHORUS x4]
1.50 - 2.09
"Girl you know I want your love..."
e|-9-----x-9----9--9--9--|-2----x-2---2-2-2-|-5----x-5---5-5-5-|-7----x-7---7-7-7-|
B|-9-----x-9----9--9--9--|-2----x-2---2-2-2-|-5----x-5---5-5-5-|-7----x-7---7-7-7-|
G|-9-----x-9----9--9--9--|-2----x-2---2-2-2-|-6----x-6---6-6-6-|-8----x-8---8-8-8-|
D|-11----x-11---11-11-11-|-4----x-4---4-4-4-|-7----x-7---7-7-7-|-9----x-9---9-9-9-|
A|-11----x-11---11-11-11-|-4----x-4---4-4-4-|-7----x-7---7-7-7-|-9----x-9---9-9-9-|
E|-9-----x-9----9--9--9--|-2----x-2---2-2-2-|-5----x-5---5-5-5-|-7----x-7---7-7-7-|


[CHORUS x8]
2.10 - 2.49
"I'm in love with the shape of you..."
e|-9-----9--9----9--9--9--|-2----2-2---2-2-2-|-5----5-5---5-5-5-|-7----7-7---7-7-7-|
B|-9-----9--9----9--9--9--|-2----2-2---2-2-2-|-5----5-5---5-5-5-|-7----7-7---7-7-7-|
G|-9-----9--9----9--9--9--|-2----2-2---2-2-2-|-6----6-6---6-6-6-|-8----8-8---8-8-8-|
D|-11----11-11---11-11-11-|-4----4-4---4-4-4-|-7----7-7---7-7-7-|-9----9-9---9-9-9-|
A|-11----11-11---11-11-11-|-4----4-4---4-4-4-|-7----7-7---7-7-7-|-9----9-9---9-9-9-|
E|-9-----9--9----9--9--9--|-2----2-2---2-2-2-|-5----5-5---5-5-5-|-7----7-7---7-7-7-|


[BRIDGE a x2]
2.50 - 2.59
"Come on by my baby..."
e|-x----x-x---x-x-x-|-x----x-x---x-x-x-|-x----x-x---x-x-x-|-x----x-x---x-x-x-|
B|-x----x-x---x-x-x-|-x----x-x---x-x-x-|-x----x-x---x-x-x-|-x----x-x---x-x-x-|
G|-x----x-x---x-x-x-|-x----x-x---x-x-x-|-x----x-x---x-x-x-|-x----x-x---x-x-x-|
D|-x----x-x---x-x-x-|-x----x-x---x-x-x-|-x----x-x---x-x-x-|-x----x-x---x-x-x-|
A|-x----x-x---x-x-x-|-x----x-x---x-x-x-|-x----x-x---x-x-x-|-x----x-x---x-x-x-|
E|-x----x-x---x-x-x-|-x----x-x---x-x-x-|-x----x-x---x-x-x-|-x----x-x---x-x-x-|


[BRIDGE b x1]
(same as VERSE) - (all downstrokes palm muted)
3.00 - 3.09
"Come on by my baby..."
e|-9-----9-----9---|-2-----2-----2---|-5-----5-----5---|-7-----7-----7---|
B|-9-----9-----9---|-2-----2-----2---|-5-----5-----5---|-7-----7-----7---|
G|-9-----9-----9---|-2-----2-----2---|-6-----6-----6---|-8-----8-----8---|
D|-11----11----11--|-4-----4-----4---|-7-----7-----7---|-9-----9-----9---|
A|-11----11----11--|-4-----4-----4---|-7-----7-----7---|-9-----9-----9---|
E|-9-----9-----9---|-2-----2-----2---|-5-----5-----5---|-7-----7-----7---|
   ...................................................................

e|-9-----9-----9---|-2-----2-----2---|-----------------|----------------|
B|-9-----9-----9---|-2-----2-----2---|-----------------|----------------|
G|-9-----9-----9---|-2-----2-----2---|-----------------|----------------|
D|-11----11----11--|-4-----4-----4---|-----------------|----------------|
A|-11----11----11--|-4-----4-----4---|-----------------|----------------|
E|-9-----9-----9---|-2-----2-----2---|-----------------|----------------|
   ...............................


[CHORUS x7]
3.10 - 3.45
"I'm in love with the shape of you..."
e|-9-----9--9----9--9--9--|-2----2-2---2-2-2-|-5----5-5---5-5-5-|-7----7-7---7-7-7-|
B|-9-----9--9----9--9--9--|-2----2-2---2-2-2-|-5----5-5---5-5-5-|-7----7-7---7-7-7-|
G|-9-----9--9----9--9--9--|-2----2-2---2-2-2-|-6----6-6---6-6-6-|-8----8-8---8-8-8-|
D|-11----11-11---11-11-11-|-4----4-4---4-4-4-|-7----7-7---7-7-7-|-9----9-9---9-9-9-|
A|-11----11-11---11-11-11-|-4----4-4---4-4-4-|-7----7-7---7-7-7-|-9----9-9---9-9-9-|
E|-9-----9--9----9--9--9--|-2----2-2---2-2-2-|-5----5-5---5-5-5-|-7----7-7---7-7-7-|


[End x1]
3.46 - To End
"Everyday discovering something brand new..."
e|-9-----9--9----9--9--9--|-2----2-2---2-2-2-|-5----5-5---5-5-5-|-7----------------|
B|-9-----9--9----9--9--9--|-2----2-2---2-2-2-|-5----5-5---5-5-5-|-7----------------|
G|-9-----9--9----9--9--9--|-2----2-2---2-2-2-|-6----6-6---6-6-6-|-8----------------|
D|-11----11-11---11-11-11-|-4----4-4---4-4-4-|-7----7-7---7-7-7-|-9----------------|
A|-11----11-11---11-11-11-|-4----4-4---4-4-4-|-7----7-7---7-7-7-|-9----------------|
E|-9-----9--9----9--9--9--|-2----2-2---2-2-2-|-5----5-5---5-5-5-|-7----------------|



***********************************
| x   Dead note
| .   Palm Muted
***********************************
Suggest correction
Creating personal tab
Creating personal tab
You can edit any tab online and save it as your Personal.

You can edit, replace or remove any tab part or add personal notes – all changes will be seen only by you.

Personal tabs can be accessed anytime from any device, even offline.
Learn more »
Give kudos to tab author, rate the tab!
1 2 3 4 5
comments
print report bad tab
1 comment total.
0 reply
misfitvandal 10 Apr 15, 2017 05:08 AM

👍

guest
You may want to rate the tab now too:
select rating
Wanna post a correction for this tab? Suggest correction