Oops, an error
Loading. Please wait.
We have Chord Pro version of Small Bump.
It's the closest thing you can get to the original song and it has interactive parts. Check out the tab »
×
113,139 views 60 this week
3 commentsread comments
1 2 3 4 5
x 9
add to favorites
×
Save as Personal and add changes to this tab that will be seen only by you. Learn more ›
×
You can save this tab as Personal to edit and correct it or add notes. All changes will be seen only by you. Learn more »
save as personal
new!
launch autoscroll
font size
0
reset
how to read this tab
guitar tuner
Autoscroll
slow
fast
+/-
esc
set tempo
stop
Author
Capo
3rd fret
Artist: Ed Sheeran                    19th July 2011
Song: Small Bump

Okay so I know everyone says this but, this is genuinely my first tab O_o
I made this by listening to the acoustic version (http://bit.ly/oJ41pM), using chords 
from 1000Gemii!’s tab and just guessing really >_<
If you listen to that version of the song, it will help
So it is very likely that I’ve made mistakes but I tried my best.
Ready? Here we go...

Capo 3


[Intro]

 Em                 Cadd9    G                    D/F#
e|-----0-------x-------x-------x------3-------x---------------|
B|-----0-------x-------x-------x------0-------x---------------|
G|-----0-----0-x----4--x----4--x------0-------x-2/4---2--0----|
D|-----2---2---x-4-----x-2-----x------0-----0-x---------------|
A|-----2-------x-------x-------x------2---2---x---------------|
E|-0---0-------x-------x-------x--3---3-------x---------------|

 Em                 Cadd9    G                    D/F#
                                                    You were just a
e|-----0-------x-------x-------x------3-------x-3---3-x-2---2-x---|
B|-----0-------x-------x-------x------0-------x-0---0-x-3---3-x---|
G|-----0-----0-x----4--x----4--x------0-------x-0---0-x-2---2-x---|
D|-----2---2---x-4-----x-2-----x------0-----0-x-0---0-x-0---0-x---|
A|-----2-------x-------x-------x------2---2---x-2---2-x-0---0-x---|
E|-0---0-------x-------x-------x--3---3-------x-3---3-x-0---0-x---|


[Verse 1]

  Em                 Cadd9    G                    D/F#
  Small bump, unborn. In four months youre brought to life
e|-----0-------x-------x-------x------3-------x-3---3-x-2---2-x---|
B|-----0-------x-------x-------x------0-------x-0---0-x-3---3-x---|
G|-----0-----0-x----4--x----4--x------0-------x-0---0-x-2---2-x---|
D|-----2---2---x-4-----x-2-----x------0-----0-x-0---0-x-0---0-x---|
A|-----2-------x-------x-------x------2---2---x-2---2-x-0---0-x---|
E|-0---0-------x-------x-------x--3---3-------x-3---3-x-0---0-x---|

  Em                 Cadd9    G                    D/F#
  You might be left with my hair, but youll have your mother eyes
e|-----0-------x-------x-------x------3-------x-3---3-x-2---2-x---|
B|-----0-------x-------x-------x------0-------x-0---0-x-3---3-x---|
G|-----0-----0-x----4--x----4--x------0-------x-0---0-x-2---2-x---|
D|-----2---2---x-4-----x-2-----x------0-----0-x-0---0-x-0---0-x---|
A|-----2-------x-------x-------x------2---2---x-2---2-x-0---0-x---|
E|-0---0-------x-------x-------x--3---3-------x-3---3-x-0---0-x---|

  Em                 Cadd9    G                    D/F#
  Ill hold your body in my hand, be as gentle as I can
  For now youre a scan of my unmade plans
e|-----0-------x-------x-------x------3-------x-3---3-x-2---2-x---|
B|-----0-------x-------x-------x------0-------x-0---0-x-3---3-x---|
G|-----0-----0-x----4--x----4--x------0-------x-0---0-x-2---2-x---|
D|-----2---2---x-4-----x-2-----x------0-----0-x-0---0-x-0---0-x---|
A|-----2-------x-------x-------x------2---2---x-2---2-x-0---0-x---|
E|-0---0-------x-------x-------x--3---3-------x-3---3-x-0---0-x---|

  Em                 Cadd9    G                    D/F#
  a small bump, in four months youll open your eyes. ~ And Ill hold you
e|-----0-------x-------x-------x------3-------x-3---3-x-2---2-x---|
B|-----0-------x-------x-------x------0-------x-0---0-x-3---3-x---|
G|-----0-----0-x----4--x----4--x------0-------x-0---0-x-2---2-x---|
D|-----2---2---x-4-----x-2-----x------0-----0-x-0---0-x-0---0-x---|
A|-----2-------x-------x-------x------2---2---x-2---2-x-0---0-x---|
E|-0---0-------x-------x-------x--3---3-------x-3---3-x-0---0-x---|


[Pre-Chorus]

  Am              C             G
  tightly. Ill give you nothing but truth. If youre not in-
e|--0---x-0---0-----0---x-0---0--------x-------x-----x-----------|
B|--1---x-1-------1-1---x-1-------1----x-------x-0---x-----0-----|
G|--2---x-2-----2---0---x-0-----0------x-------x-0---x-0-----0---|
D|--2---x-2---------2---x-2------------x-----0-x-----x-0---------|
A|--0---x-0---------3---x-3------------x---2---x-----x-----------|
E|--0---x-0---------0---x-0---------3--x-3-----x-----x-----------|

  Am              C             D/F# (let ring)
  -side me, ill put my future in you~           cos you are my
e|--0---x-0---0-----0---x-0---0------2-------------------------|
B|--1---x-1-------1-1---x-1-------1--3-------------------------|
G|--2---x-2-----2---0---x-0-----0----2-----*tap x4*------------|
D|--2---x-2---------2---x-2----------0-------------------------|
A|--0---x-0---------3---x-3----------0-------------------------|
E|--0---x-0---------0---x-0----------2-------------------------|


[Chorus]

  Em                 Cadd9    G                    D/F#
  one and only. You can wrap youre fingers round my
e|-----0-------x-------x-------x-3-----x-3---3-x-3---3-x-2---2-x---|
B|-----0-------x-------x-------x-0-----x-0---0-x-0---0-x-3---3-x---|
G|-----0-----0-x----4--x----4--x-0-----x-0---0-x-0---0-x-2---2-x---|
D|-----2---2---x-4-----x-2-----x-0-----x-0---0-x-0---0-x-0---0-x---|
A|-----2-------x-------x-------x-2-----x-2---2-x-2---2-x-0---0-x---|
E|-0---0-------x-------x-------x-3-----x-3---3-x-3---3-x-0---0-x---|

  Em                 Cadd9    G                    D/F#
  thumb and hold me tight. Oh you are my
e|-----0-------x-------x-------x-3-----x-3---3-x-3---3-x-2---2-x---|
B|-----0-------x-------x-------x-0-----x-0---0-x-0---0-x-3---3-x---|
G|-----0-----0-x----4--x----4--x-0-----x-0---0-x-0---0-x-2---2-x---|
D|-----2---2---x-4-----x-2-----x-0-----x-0---0-x-0---0-x-0---0-x---|
A|-----2-------x-------x-------x-2-----x-2---2-x-2---2-x-0---0-x---|
E|-0---0-------x-------x-------x-3-----x-3---3-x-3---3-x-0---0-x---|

  Em                 Cadd9    G                    D/F#
  one and only. You can wrap youre fingers round my
e|-----0-------x-------x-------x-3-----x-3---3-x-3---3-x-2---2-x---|
B|-----0-------x-------x-------x-0-----x-0---0-x-0---0-x-3---3-x---|
G|-----0-----0-x----4--x----4--x-0-----x-0---0-x-0---0-x-2---2-x---|
D|-----2---2---x-4-----x-2-----x-0-----x-0---0-x-0---0-x-0---0-x---|
A|-----2-------x-------x-------x-2-----x-2---2-x-2---2-x-0---0-x---|
E|-0---0-------x-------x-------x-3-----x-3---3-x-3---3-x-0---0-x---|

  Em                 Cadd9    G                 G (let ring)
  thumb and hold me tight. And youll be allright~          oh youre just a
e|-----0-------x-------x-------x------3-------x-3-----------------|
B|-----0-------x-------x-------x------0-------x-0-----------------|
G|-----0-----0-x----4--x----4--x------0-------x-0----*Tap x4*-----|
D|-----2---2---x-4-----x-2-----x------0-----0-x-0-----------------|
A|-----2-------x-------x-------x------2---2---x-2-----------------|
E|-0---0-------x-------x-------x--3---3-------x-3--------------3--|


[Verse 2]

  Em                 Cadd9    G                    D/F#
  Small bump, unknown. Youll grow into your skin
e|-----0-------x-------x-------x------3-------x-3---3-x-2---2-x---|
B|-----0-------x-------x-------x------0-------x-0---0-x-3---3-x---|
G|-----0-----0-x----4--x----4--x------0-------x-0---0-x-2---2-x---|
D|-----2---2---x-4-----x-2-----x------0-----0-x-0---0-x-0---0-x---|
A|-----2-------x-------x-------x------2---2---x-2---2-x-0---0-x---|
E|-0---0-------x-------x-------x--3---3-------x-3---3-x-0---0-x---|

  Em                 Cadd9    G                    D/F#
  With a smile like hers and a dimple beneath your chin
e|-----0-------x-------x-------x------3-------x-3---3-x-2---2-x---|
B|-----0-------x-------x-------x------0-------x-0---0-x-3---3-x---|
G|-----0-----0-x----4--x----4--x------0-------x-0---0-x-2---2-x---|
D|-----2---2---x-4-----x-2-----x------0-----0-x-0---0-x-0---0-x---|
A|-----2-------x-------x-------x------2---2---x-2---2-x-0---0-x---|
E|-0---0-------x-------x-------x--3---3-------x-3---3-x-0---0-x---|


  Em (let ring)             G (let ring)
  Fingernails the size of a half grain of rice and eyelids closed to be soon opened wide
e|-----0---------------------3---------------------------------------------------------|
B|-----0---------------------0------------------------------------------------------1--|
G|-----0-----*Tap x3*--------0-----------------------0----------*Tap x5*------------0--|
D|-----2---------------------0-----0---------------------------------------------------|
A|-----2---------------------2----2----------------------------------------------------|
E|-----0---------------------3---3---3---------------0---------------------------------|

  Em                 Cadd9    G                    D/F#
  a small bump, in four months youll open your eyes. ~ And Ill hold you
e|-----0-------x-------x-------x------3-------x-3---3-x-2---2-x---|
B|-----0-------x-------x-------x------0-------x-0---0-x-3---3-x---|
G|-----0-----0-x----4--x----4--x------0-------x-0---0-x-2---2-x---|
D|-----2---2---x-4-----x-2-----x------0-----0-x-0---0-x-0---0-x---|
A|-----2-------x-------x-------x------2---2---x-2---2-x-0---0-x---|
E|-0---0-------x-------x-------x--3---3-------x-3---3-x-0---0-x---|


[Pre-Chorus]

  Am              C             G
  tightly. Ill give you nothing but truth. If youre not in-
e|--0---x-0---0-----0---x-0---0--------x-------x-----x-----------|
B|--1---x-1-------1-1---x-1-------1----x-------x-0---x-----0-----|
G|--2---x-2-----2---0---x-0-----0------x-------x-0---x-0-----0---|
D|--2---x-2---------2---x-2------------x-----0-x-----x-0---------|
A|--0---x-0---------3---x-3------------x---2---x-----x-----------|
E|--0---x-0---------0---x-0---------3--x-3-----x-----x-----------|

  Am              C             D/F# (let ring)
  -side me, ill put my future in you~           cos you are my
e|--0---x-0---0-----0---x-0---0------2-------------------------|
B|--1---x-1-------1-1---x-1-------1--3-------------------------|
G|--2---x-2-----2---0---x-0-----0----2-----*tap x4*------------|
D|--2---x-2---------2---x-2----------0-------------------------|
A|--0---x-0---------3---x-3----------0-------------------------|
E|--0---x-0---------0---x-0----------2-------------------------|


[Chorus]

  Em                 Cadd9    G                    D/F#
  one and only. You can wrap youre fingers round my
e|-----0-------x-------x-------x-3-----x-3---3-x-3---3-x-2---2-x---|
B|-----0-------x-------x-------x-0-----x-0---0-x-0---0-x-3---3-x---|
G|-----0-----0-x----4--x----4--x-0-----x-0---0-x-0---0-x-2---2-x---|
D|-----2---2---x-4-----x-2-----x-0-----x-0---0-x-0---0-x-0---0-x---|
A|-----2-------x-------x-------x-2-----x-2---2-x-2---2-x-0---0-x---|
E|-0---0-------x-------x-------x-3-----x-3---3-x-3---3-x-0---0-x---|

  Em                 Cadd9    G                    D/F#
  thumb and hold me tight. Oh you are my
e|-----0-------x-------x-------x-3-----x-3---3-x-3---3-x-2---2-x---|
B|-----0-------x-------x-------x-0-----x-0---0-x-0---0-x-3---3-x---|
G|-----0-----0-x----4--x----4--x-0-----x-0---0-x-0---0-x-2---2-x---|
D|-----2---2---x-4-----x-2-----x-0-----x-0---0-x-0---0-x-0---0-x---|
A|-----2-------x-------x-------x-2-----x-2---2-x-2---2-x-0---0-x---|
E|-0---0-------x-------x-------x-3-----x-3---3-x-3---3-x-0---0-x---|

  Em                 Cadd9    G                    D/F#
  one and only. You can wrap youre fingers round my
e|-----0-------x-------x-------x-3-----x-3---3-x-3---3-x-2---2-x---|
B|-----0-------x-------x-------x-0-----x-0---0-x-0---0-x-3---3-x---|
G|-----0-----0-x----4--x----4--x-0-----x-0---0-x-0---0-x-2---2-x---|
D|-----2---2---x-4-----x-2-----x-0-----x-0---0-x-0---0-x-0---0-x---|
A|-----2-------x-------x-------x-2-----x-2---2-x-2---2-x-0---0-x---|
E|-0---0-------x-------x-------x-3-----x-3---3-x-3---3-x-0---0-x---|

  Em                 Cadd9    G                 G (let ring)
  thumb and hold me tight. And youll be alright~
e|-----0-------x-------x-------x------3-------x-------------x------|
B|-----0-------x-------x-------x------0-------x-------------x------|
G|-----0-----0-x----4--x----4--x------0-----0-x-0---------0-x------|
D|-----2---2---x-4-----x-2-----x------0-------x-----0-------x------|
A|-----2-------x-------x-------x------2---2---x---------2---x------|
E|-0---0-------x-------x-------x--3---3-------x-------------x------|


[Bridge]

  D           Cadd9                   Em
  And you can lie with me, with your tiny feet when youre
e|-2-----------x-----x--------x----------x--------x---------|
B|-3-----------x-1---x-1------x----------x--------x---------|
G|-----2-----2-x-----x--------x----------x--------x---------|
D|---------0---x-----x--------x----------x--------x---------|
A|-------------x-3---x-3------x------2---x-2------x---------|
E|-------------x-----x--------x------0---x-0------x---------|

  G                          D            Cadd9
  Half asleep, ill leave you be. Right in front of me for a
e|-----x--------x----------------x---------x-----x----------|
B|-----x--------x------------3---x-3-------x-1---x-1--------|
G|-----x--------x------------2---x-2-------x-----x----------|
D|-----x--------x------------0---x-0-------x-----x----------|
A|-2---x-2------x----------------x---------x-3---x-3--------|
E|-3---x-3------x----------------x---------x-----x----------|

  Em               G                   Em (let ring)
  Couple weeks, so I can keep you safe~          Cos you are my
e|-----x--------x-------x-----------0------|
B|-----x--------x-------x-----------0------|
G|-----x--------x-------x-----------0------|
D|-----x--------x-------x-----------2------|
A|-2---x-2------x---2---x-2---------2------|
E|-0---x-0------x---3---x-3---------0------|


[Chorus]

  Em                 Cadd9    G                    D/F#
  one and only. You can wrap youre fingers round my
e|-----0-------x-------x-------x-3-----x-3---3-x-3---3-x-2---2-x---|
B|-----0-------x-------x-------x-0-----x-0---0-x-0---0-x-3---3-x---|
G|-----0-----0-x----4--x----4--x-0-----x-0---0-x-0---0-x-2---2-x---|
D|-----2---2---x-4-----x-2-----x-0-----x-0---0-x-0---0-x-0---0-x---|
A|-----2-------x-------x-------x-2-----x-2---2-x-2---2-x-0---0-x---|
E|-0---0-------x-------x-------x-3-----x-3---3-x-3---3-x-0---0-x---|

  Em                 Cadd9    G                    D/F#
  thumb and hold me tight. Oh you are my
e|-----0-------x-------x-------x-3-----x-3---3-x-3---3-x-2---2-x---|
B|-----0-------x-------x-------x-0-----x-0---0-x-0---0-x-3---3-x---|
G|-----0-----0-x----4--x----4--x-0-----x-0---0-x-0---0-x-2---2-x---|
D|-----2---2---x-4-----x-2-----x-0-----x-0---0-x-0---0-x-0---0-x---|
A|-----2-------x-------x-------x-2-----x-2---2-x-2---2-x-0---0-x---|
E|-0---0-------x-------x-------x-3-----x-3---3-x-3---3-x-0---0-x---|

  Em                 Cadd9    G                    D/F#
  one and only. You can wrap youre fingers round my
e|-----0-------x-------x-------x-3-----x-3---3-x-3---3-x-2---2-x---|
B|-----0-------x-------x-------x-0-----x-0---0-x-0---0-x-3---3-x---|
G|-----0-----0-x----4--x----4--x-0-----x-0---0-x-0---0-x-2---2-x---|
D|-----2---2---x-4-----x-2-----x-0-----x-0---0-x-0---0-x-0---0-x---|
A|-----2-------x-------x-------x-2-----x-2---2-x-2---2-x-0---0-x---|
E|-0---0-------x-------x-------x-3-----x-3---3-x-3---3-x-0---0-x---|

  Em                 Cadd9    G                 G (let ring)
  thumb and hold me tight. And youll be alright~         Cos you were just a
e|-----0-------x-------x-------x------3-------x------------------|
B|-----0-------x-------x-------x------0-------x------------------|
G|-----0-----0-x----4--x----4--x------0-----0-x-0----------------|
D|-----2---2---x-4-----x-2-----x------0-------x------------------|
A|-----2-------x-------x-------x------2---2---x------------------|
E|-0---0-------x-------x-------x--3---3-------x------------------|


[Outro]

  Em                   F# variant         Cadd9       G
  Small bump, unborn for four months then torn from life
e|--0---------------------0-----------------0---------3---|
B|--0---------------------0-----------------1---------0---|
G|--0---------------------0-----------------0---------0---|
D|--2---------------------4-----------------0---------0---|
A|--2---------------------2-----------------3---------2---|
E|--0---------------------x-----------------x---------3---|

                       Em              F# variant      Cadd9     G
  And maybe you were needed up there but were still unaware as why~
e|----------------------0------------------0------------0-------3--|
B|----------------------0------------------0------------1-------0--|
G|----------------------0------------------0------------0-------0--|
D|----------------------2------------------4------------0-------0--|
A|----------------------2------------------2------------3-------2--|
E|----------------------0------------------x------------x-------3--|



************************************

| x  Dead note
| /  Slide up

************************************
Suggest correction
comments
print report bad tab
3 comments total.
0 reply
Smithy01 10 Jan 28, 2013 11:19 PM

some of the lyrics are wrong

0 reply
xymonrenz_t 10 Mar 27, 2016 12:45 AM

it looks like you make this difficult and I its not the arrangement Ed's play try to lower your tuning in your guitar to D# G# C# F# A# D# and capo in third fret and try to listen and watch carefully on how it played -__-

guest
You may want to rate the tab now too:
select rating
Wanna post a correction for this tab? Suggest correction