Oops, an error
Loading. Please wait.
We have Chord Pro version of Small Bump.
It's the closest thing you can get to the original song and it has interactive parts. Check out the tab »
×
964 views 9 this week
1 commentread comment
1 2 3 4 5
3 more votes to show rating
add to favorites
×
Save as Personal and add changes to this tab that will be seen only by you. Learn more ›
×
You can save this tab as Personal to edit and correct it or add notes. All changes will be seen only by you. Learn more »
launch autoscroll
font size
0
reset
how to read this tab
guitar tuner
edit
Autoscroll
slow
fast
+/-
esc
set tempo
stop
About this tab version
Tabbed from a live version. Was this info helpful? Yes No
Tempo: 120BPM
Length: 4:19
Tabbed by: Matthew Gotte

[Verse] x4

e|-----------------x--------x--------x-----------------x-------x-----------x-|
B|--0--0--------0--x--0--0--x--0--0--x--3--3--------3--x-------x-----------x-|
G|--0--0--------0--x--0--0--x--0--0--x--0--0--------0--x--2/4--x--4\2p0----x-|
D|--2--2-----2-----x--4--4--x--2--2--x--0--0-----0-----x--0----x--0----h2--x-|
A|-----------------x--2-----x--3-----x-----------------x-------x-----------x-|
E|--0-----0--------x--------x--------x--3-----3--------x-------x-----------x-|

e|-----------------x--------x--------x-----------------x-----------x--------x|
B|--0--0--------0--x--0--0--x--0--0--x--3--3--------3--x--------3--x--3--3--x|
G|--0--0--------0--x--0--0--x--0--0--x--0--0--------0--x--------0--x--2--2--x|
D|--2--2-----2-----x--4--4--x--2--2--x--0--0-----0-----x-----0-----x--0--0--x|
A|-----------------x--2-----x--3-----x-----------------x-----------x--------x|
E|--0-----0--------x--------x--------x--3-----3--------x--3--------x--2-----x|


[Chorus]

e|-----------------x--------x--------x-----------------x-------x-----------x-|
B|--0--0--------0--x--0--0--x--0--0--x--3--3--------3--x-------x-----------x-|
G|--0--0--------0--x--0--0--x--0--0--x--0--0--------0--x--2/4--x--4\2p0----x-|
D|--2--2-----2-----x--4--4--x--2--2--x--0--0-----0-----x--0----x--0----h2--x-|
A|-----------------x--2-----x--3-----x-----------------x-------x-----------x-|
E|--0-----0--------x--------x--------x--3-----3--------x-------x-----------x-|

e|-----------------x--------x--------x-----------------x-----------x--------x|
B|--0--0--------0--x--0--0--x--0--0--x--3--3--------3--x--------3--x--3--3--x|
G|--0--0--------0--x--0--0--x--0--0--x--0--0--------0--x--------0--x--2--2--x|
D|--2--2-----2-----x--4--4--x--2--2--x--0--0-----0-----x-----0-----x--0--0--x|
A|-----------------x--2-----x--3-----x-----------------x-----------x--------x|
E|--0-----0--------x--------x--------x--3-----3--------x--3--------x--2-----x|

e|-----------------x--------x--------x-----------------x-------x-----------x-|
B|--0--0--------0--x--0--0--x--0--0--x--3--3--------3--x-------x-----------x-|
G|--0--0--------0--x--0--0--x--0--0--x--0--0--------0--x--2/4--x--4\2p0----x-|
D|--2--2-----2-----x--4--4--x--2--2--x--0--0-----0-----x--0----x--0----h2--x-|
A|-----------------x--2-----x--3-----x-----------------x-------x-----------x-|
E|--0-----0--------x--------x--------x--3-----3--------x-------x-----------x-|

e|-----------------x--------x--------x-----------------x-----------x--------x|
B|--0--0--------0--x--0--0--x--0--0--x--3--3--------3--x--------3--x--3--3--x|
G|--0--0--------0--x--0--0--x--0--0--x--0--0--------0--x--------0--x--2--2--x|
D|--2--2-----2-----x--4--4--x--2--2--x--0--0-----0-----x-----0-----x--0--0--x|
A|-----------------x--2-----x--3-----x-----------------x-----------x--------x|
E|--0-----0--------x--------x--------x--3-----3--------x--3--------x--2-----x|


[Pre-chorus]

e|-----------------x--------x--------x-----------------x-----------------x---|
B|--1--1--------1--x--1--1--x--1--1--x--3--3--------3--x--3--3--------3--x---|
G|--0--0--------0--x--0--0--x--0--0--x--0--0--------0--x--0--0--------0--x---|
D|--2--2-----2-----x--0--0--x--2--2--x--0--0-----0-----x--0--0-----0-----x---|
A|--0-----0--------x--2-----x--3-----x-----------------x-----------------x---|
E|-----------------x--------x--------x--3-----3--------x--3-----3--------x---|

e|-----------------x--------x--------x-----------------x---------------------|
B|--1--1--------1--x--1--1--x--1--1--x--3--3--------3--x--3------------------|
G|--0--0--------0--x--0--0--x--0--0--x--2--2--------2--x--2------------------|
D|--2--2-----2-----x--0--0--x--2--2--x--0--0-----0-----x--0------------------|
A|--0-----0--------x--2-----x--3-----x--0-----0--------x--0------------------|
E|-----------------x--------x--------x-----------------x---------------------|

************************************

/    Slide Up
\    Slide Down
h    Hammer On
p    Pull Off
x    Slap Strings

************************************ 

            
            
Suggest correction
Creating personal tab
Creating personal tab
You can edit any tab online and save it as your Personal.

You can edit, replace or remove any tab part or add personal notes – all changes will be seen only by you.

Personal tabs can be accessed anytime from any device, even offline.
Learn more »
Give kudos to tab author, rate the tab!
1 2 3 4 5
comments
print report bad tab
1 comment total.
0 reply
HavoCentral 297 Jun 05, 2017 06:04 AM

The D chord at the end of the prechorus is a slide up to x 54030 from the previous C, based on the ZMTV youtube vid.

Also, you can pretty much shorten the tap to the first 2 lines, since the entire song is a combination of them and the slidy part and the 20023 part art almost interchangable since they are the same chord structure.

guest
You may want to rate the tab now too:
select rating
Wanna post a correction for this tab? Suggest correction