Oops, an error
Loading. Please wait.

Sunburn Chords

version 2
version 2

Whole song

46,166 views 147 this week
1 commentread comment
1 2 3 4 5
x 42
add to favorites
launch autoscroll
font size
0
reset
transpose
0
reset
display chords
guitar tuner
Autoscroll
slow
fast
+/-
esc
set tempo
stop
Help us to improve Ultimate-Guitar.com Take our survey!
×
Author
Difficulty
Capo
novice
3rd fret
Title: Sunburn
Artist:Ed Sheeran
Album: + (2011)
__________________________________________________
Tabbed by: Tobytab
Feel free to rate/comment this tab
__________________________________________________
Standard Tuning: EADGBE
Capo: 3rd Fret
Rythm: 4/4 (listen to intro of song for exact rythm)

[Intro]

   G                        C                    D G (and repeat)
e|--------------------------------------------------------------------|
B|-3--3--3--3--3--3--3--3---1--1--1--1--1--1--1--3-3------------------|
G|-0--0--0--0--0--0--0--0---0--0--0--0--0--0--0--2-0------------------|
D|--------------------------------------------------------------------|
A|-2--2--2--2--2--2--2--2---3--3--3--3--3--3--3--0-2------------------|
E|--------------------------------------------------------------------|


[Verse]

G                           
You're not her
                        C                D        
Though I try to see you differently
G         
I toe the line
                           C             D
See I'm searching for what used to be, mine  ooohhhh
G        
And I saw your eyes
                        C                D     
Then I saw Alice staring back at me
G          
So I will try
G                       C             
To find another one who's suited to me
   D   
As well as her


[Pre-Chorus]

C           D        Em
I've moved, far away from you
G
And I want to
C       D              Em
See you here beside me dear
                  G
but things aren't clear


[Chorus]

C                 D
And we never even tried
              Em
We never even talked
              G
We never even thought in the long run
C               D
Whenever it was painful
               Em
Whenever I was away
    G
I'd miss you
          C
And I miss you


[Verse]

G
She was mine

I was hers
               C            D
And all that's in between
G
If she would cry

I would shelter her
    C                          D 
And keep her from the darkness that will be


[Pre-Chorus]

C           D        Em
If I moved, far away from you
G
And I want to
C       D              Em
See you here beside me dear
                  G
but things aren't clear, oohhhh


[Chorus]

C                 D
And we never even tried
              Em
We never even talked
              G
We never even thought in the long run
C               D
Whenever it was painful
               Em
Whenever I was away
    G
I'd miss you
          C            D
And I miss you


[Verse]

G                     
Don't trap me in, it's not my time
C                       
If you cut me deep then, I might lie

And if you  
Em         D              G            C          
Scar and left me, like a sunburn
G
Don't trap me in, it's not my time
C
if you cut deep then I might lie
Em
And you
            D                           C
Scarred and leave me, like a sunburn


[Chorus]

C                 D
And we never even tried
              Em
We never even talked
              G
We never even thought in the long run
C               D
Whenever it was painful
               Em
Whenever I was away
    G
I'd miss you
          C
I miss you
Suggest correction
comments
print report bad tab
1 comment total.
-2 reply
EdSheeranFan 10 Dec 26, 2014 02:03 PM

G C D G (and repeat)
e|--------------------------------------------------------------------|
B|-3--3--3--3--3--3--3--3---1--1--1--1--1--1--1--3-3------------------|
G|-0--0--0--0--0--0--0--0---0--0--0--0--0--0--0--2-0------------------|
D|--------------------------------------------------------------------|
A|-2--2--2--2--2--2--2--2---3--3--3--3--3--3--3--0-2------------------|
E|--------------------------------------------------------------------|

What does this mean??

guest
You may want to rate the tab now too:
select rating
Wanna post a correction for this tab? Suggest correction