Oops, an error
Loading. Please wait.

Sunburn tab

version 2
version 2

Whole song

  • Based off acoustic performance (https://www.youtub... Show more
1,143 views 3 this week
no commentswrite comment
1 2 3 4 5
1 last vote to show rating
add to favorites
×
Save as Personal and add changes to this tab that will be seen only by you. Learn more ›
×
You can save this tab as Personal to edit and correct it or add notes. All changes will be seen only by you. Learn more »
launch autoscroll
font size
0
reset
how to read this tab
guitar tuner
edit
Autoscroll
slow
fast
+/-
esc
set tempo
stop
Author
-------------------------------------------------------------------------------
                             Sunburn -Ed sheeran
-------------------------------------------------------------------------------
Tabbed by:schnakeeee

Tuning: C G D G B D

This tab is for the version of sunburn that's on the You Need Me EP 
https://www.youtube.com/watch?v=IOJL1A8URng
hope you like it :)

Verse 1
e|-----------------------------------------------------------------------------|
B|--0---------0-------0--------0-------0--------0--------0-------0-------------|
G|-----------------------------------------------------------------------------|
D|--------0-------0---------0-------0--------0-------0--------0------0---------|
A|--0---0---0---0-----0---0---0---0----0---0---0---0-----0--0---0--0-----------|
E|-----------------------------------------------------------------------------|

e|-----------------------------------------------------------------------------|
B|-----------------------------------------------------------------------------|
G|----------0------------------0--------------------0--------------------0-----|
D|-2----2--------2---2----2----------2----2----2--------2----4----4------------|
A|-----------------------------------------------------------------------------|
E|-0--0---0---0------0--0----0----0-------0--0----0---0------2--2----2-----2---|

e|-----------------------------------------------------------------------------|
B|--0---------0-------0--------0-------0--------0--------0-------0-------------|
G|-----------------------------------------------------------------------------|
D|--------0-------0---------0-------0--------0-------0--------0------0---------|
A|--0---0---0---0-----0---0---0---0----0---0---0---0-----0--0---0--0-----------|
E|-----------------------------------------------------------------------------|

e|----------------------------------------------------------------------------|
B|----------------------------------------------------------------------------|
G|----------0------------------0--------------------0-----------------0-------|
D|-2----2--------2---2----2----------2---4----4---------4--4----4--------4----|
A|----------------------------------------------------------------------------|
E|-0--0---0---0------0--0----0----0------2--2----2----2----2--2----2---2------|

Verse 2
e|-----------------------------------------------------------------------------|
B|--0---------0-------0--------0-------0--------0--------0-------0-------------|
G|-----------------------------------------------------------------------------|
D|--------0-------0---------0-------0--------0-------0--------0------0---------|
A|--0---0---0---0-----0---0---0---0----0---0---0---0-----0--0---0--0-----------|
E|-----------------------------------------------------------------------------|

e|-----------------------------------------------------------------------------|
B|-----------------------------------------------------------------------------|
G|----------0------------------0--------------------0--------------------0-----|
D|-2----2--------2---2----2----------2----2----2--------2----4----4------------|
A|-----------------------------------------------------------------------------|
E|-0--0---0---0------0--0----0----0-------0--0----0---0------2--2----2-----2---|

e|-----------------------------------------------------------------------------|
B|--0---------0-------0--------0-------0--------0--------0-------0-------------|
G|-----------------------------------------------------------------------------|
D|--------0-------0---------0-------0--------0-------0--------0------0---------|
A|--0---0---0---0-----0---0---0---0----0---0---0---0-----0--0---0--0-----------|
E|-----------------------------------------------------------------------------|

e|----------------------------------------------------------------------------|
B|----------------------------------------------------------------------------|
G|----------0------------------0--------------------0-----------------0-------|
D|-2----2--------2---2----2----------2---4----4---------4--4----4--------4----|
A|----------------------------------------------------------------------------|
E|-0--0---0---0------0--0----0----0------2--2----2----2----2--2----2---2------|


Prechorus
e|----------------------------------------------------------------------------|
B|----------------------------------------------------------------------------|
G|----------0------------------0--------------------0-----------------0-------|
D|-2----2--------2---2----2----------2---4----4---------4--4----4--------4----|
A|----------------------------------------------------------------------------|
E|-0--0---0---0------0--0----0----0------2--2----2----2----2--2----2---2------|

e|---------------------------------------------------------------------------------------|
B|----------------------------------------------0---------0-------0---------0------------|
G|-0-----------0---------0-----------0---------------------------------------------------|
D|-------0----------0---------0----------0------------0-------0---------0-------0--------|
A|----------------------------------------------0---0---0---0-----0---0---0---0----------|
E|-4--4-----4----4-------4--4-----4----4-------------------------------------------------|

e|----------------------------------------------------------------------------|
B|----------------------------------------------------------------------------|
G|----------0------------------0--------------------0-----------------0-------|
D|-2----2--------2---2----2----------2---4----4---------4--4----4--------4----|
A|----------------------------------------------------------------------------|
E|-0--0---0---0------0--0----0----0------2--2----2----2----2--2----2---2------|

e|---------------------------------------------------------------------------------------|
B|----------------------------------------------0---------0-------0---------0------------|
G|-0-----------0---------0-----------0---------------------------------------------------|
D|-------0----------0---------0----------0------------0-------0---------0-------0--------|
A|----------------------------------------------0---0---0---0-----0---0---0---0----------|
E|-4--4-----4----4-------4--4-----4----4-------------------------------------------------|

Chorus
e|----------------------------------------------------------------------------|
B|----------------------------------------------------------------------------|
G|----------0------------------0--------------------0-----------------0-------|
D|-2----2--------2---2----2----------2---4----4---------4--4----4--------4----|
A|----------------------------------------------------------------------------|
E|-0--0---0---0------0--0----0----0------2--2----2----2----2--2----2---2------|

e|---------------------------------------------------------------------------------------|
B|----------------------------------------------0---------0-------0---------0------------|
G|-0-----------0---------0-----------0---------------------------------------------------|
D|-------0----------0---------0----------0------------0-------0---------0-------0--------|
A|----------------------------------------------0---0---0---0-----0---0---0---0----------|
E|-4--4-----4----4-------4--4-----4----4-------------------------------------------------|

e|----------------------------------------------------------------------------|
B|----------------------------------------------------------------------------|
G|----------0------------------0--------------------0-----------------0-------|
D|-2----2--------2---2----2----------2---4----4---------4--4----4--------4----|
A|----------------------------------------------------------------------------|
E|-0--0---0---0------0--0----0----0------2--2----2----2----2--2----2---2------|

e|----------------------------------------------------------------------------------------|
B|----------------------------------------------0---------0-------0---------0-------------|
G|-0-----------0---------0-----------0----------------------------------------------------|
D|-------0----------0---------0----------0------------0-------0---------0-------0-----2---|
A|----------------------------------------------0---0---0---0-----0---0---0---0-----------|
E|-4--4-----4----4-------4--4-----4----4----------------------------------------------0---|

Verse 3
e|-----------------------------------------------------------------------------|
B|--0---------0-------0--------0-------0--------0--------0-------0-------------|
G|-----------------------------------------------------------------------------|
D|--------0-------0---------0-------0--------0-------0--------0------0---------|
A|--0---0---0---0-----0---0---0---0----0---0---0---0-----0--0---0--0-----------|
E|-----------------------------------------------------------------------------|

e|-----------------------------------------------------------------------------|
B|-----------------------------------------------------------------------------|
G|----------0------------------0--------------------0--------------------0-----|
D|-2----2--------2---2----2----------2----2----2--------2----4----4------------|
A|-----------------------------------------------------------------------------|
E|-0--0---0---0------0--0----0----0-------0--0----0---0------2--2----2-----2---|

e|-----------------------------------------------------------------------------|
B|--0---------0-------0--------0-------0--------0--------0-------0-------------|
G|-----------------------------------------------------------------------------|
D|--------0-------0---------0-------0--------0-------0--------0------0---------|
A|--0---0---0---0-----0---0---0---0----0---0---0---0-----0--0---0--0-----------|
E|-----------------------------------------------------------------------------|

e|----------------------------------------------------------------------------|
B|----------------------------------------------------------------------------|
G|----------0------------------0--------------------0-----------------0-------|
D|-2----2--------2---2----2----------2---4----4---------4--4----4--------4----|
A|----------------------------------------------------------------------------|
E|-0--0---0---0------0--0----0----0------2--2----2----2----2--2----2---2------|

Prechorus
e|----------------------------------------------------------------------------|
B|----------------------------------------------------------------------------|
G|----------0------------------0--------------------0-----------------0-------|
D|-2----2--------2---2----2----------2---4----4---------4--4----4--------4----|
A|----------------------------------------------------------------------------|
E|-0--0---0---0------0--0----0----0------2--2----2----2----2--2----2---2------|

e|---------------------------------------------------------------------------------------|
B|----------------------------------------------0---------0-------0---------0------------|
G|-0-----------0---------0-----------0---------------------------------------------------|
D|-------0----------0---------0----------0------------0-------0---------0-------0--------|
A|----------------------------------------------0---0---0---0-----0---0---0---0----------|
E|-4--4-----4----4-------4--4-----4----4-------------------------------------------------|

e|----------------------------------------------------------------------------|
B|----------------------------------------------------------------------------|
G|----------0------------------0--------------------0-----------------0-------|
D|-2----2--------2---2----2----------2---4----4---------4--4----4--------4----|
A|----------------------------------------------------------------------------|
E|-0--0---0---0------0--0----0----0------2--2----2----2----2--2----2---2------|

e|---------------------------------------------------------------------------------------|
B|----------------------------------------------0---------0-------0---------0------------|
G|-0-----------0---------0-----------0---------------------------------------------------|
D|-------0----------0---------0----------0------------0-------0---------0-------0--------|
A|----------------------------------------------0---0---0---0-----0---0---0---0----------|
E|-4--4-----4----4-------4--4-----4----4-------------------------------------------------|

Chorus
e|----------------------------------------------------------------------------|
B|----------------------------------------------------------------------------|
G|----------0------------------0--------------------0-----------------0-------|
D|-2----2--------2---2----2----------2---4----4---------4--4----4--------4----|
A|----------------------------------------------------------------------------|
E|-0--0---0---0------0--0----0----0------2--2----2----2----2--2----2---2------|

e|---------------------------------------------------------------------------------------|
B|----------------------------------------------0---------0-------0---------0------------|
G|-0-----------0---------0-----------0---------------------------------------------------|
D|-------0----------0---------0----------0------------0-------0---------0-------0--------|
A|----------------------------------------------0---0---0---0-----0---0---0---0----------|
E|-4--4-----4----4-------4--4-----4----4-------------------------------------------------|

e|----------------------------------------------------------------------------|
B|----------------------------------------------------------------------------|
G|----------0------------------0--------------------0-----------------0-------|
D|-2----2--------2---2----2----------2---4----4---------4--4----4--------4----|
A|----------------------------------------------------------------------------|
E|-0--0---0---0------0--0----0----0------2--2----2----2----2--2----2---2------|

e|----------------------------------------------------------------------------------------|
B|----------------------------------------------0---------0-------0---------0-------------|
G|-0-----------0---------0-----------0----------------------------------------------------|
D|-------0----------0---------0----------0------------0-------0---------0-------0-----2---|
A|----------------------------------------------0---0---0---0-----0---0---0---0-----------|
E|-4--4-----4----4-------4--4-----4----4----------------------------------------------0---|


Bridge
e|-----------------------------------------------------------------------------|
B|--0---------0-------0--------0-------0--------0--------0-------0-------------|
G|-----------------------------------------------------------------------------|
D|--------0-------0---------0-------0--------0-------0--------0------0---------|
A|--0---0---0---0-----0---0---0---0----0---0---0---0-----0--0---0--0-----------|
E|-----------------------------------------------------------------------------|

e|-----------------------------------------------------------------------------|
B|-----------------------------------------------------------------------------|
G|----------0------------------0--------------------0-------------------0------|
D|-2----2--------2---2----2----------2----2----2--------2---2-----2---------2--|
A|-----------------------------------------------------------------------------|
E|-0--0---0---0------0--0----0----0-------0--0----0---0-----0---0----0----0----|

e|---------------------------------------------------------------------------------|
B|---------------------------------------------------------------------------------|
G|-0-----------0---------0-----------0--------0---------0-----------------0--------|
D|-------0----------0---------0----------0----------0-------0---4-----4------------|
A|---------------------------------------------------------------------------------|
E|-4--4-----4----4-------4--4-----4----4------4---4---4---4-----2---2---2---2------|

Chorus
e|-------------------------------------|
B|---------------0-------------0-------|
G|-----------0--------------0----------|
D|-2----4-----------2---4----------2---|
A|---------------0-------------0-------|
E|-0----2----4------0---2---4------0---|

That's it! hope its not too confusing or too long, comment any questions :)

************************************

| /   slide up
| \   slide down
| h   hammer-on
| p   pull-off
| ~   vibrato
| +   harmonic
| x   Mute note
| b   Bend
| pb  Pre-bend
| br  Bend release
| pbr Pre-bend release
| brb Bend release bend

************************************
Suggest correction
Creating personal tab
Creating personal tab
You can edit any tab online and save it as your Personal.

You can edit, replace or remove any tab part or add personal notes – all changes will be seen only by you.

Personal tabs can be accessed anytime from any device, even offline.
Learn more »
Give kudos to tab author, rate the tab!
1 2 3 4 5
comments
print report bad tab
guest
You may want to rate the tab now too:
select rating
Wanna post a correction for this tab? Suggest correction