Oops, an error
Loading. Please wait.

Supermarket Flowers tab

version 2
version 2

Whole song

  • I made this so people can look at his tutorial all... Show more

Video

637 views 36 this week
no commentswrite comment
1 2 3 4 5
3 more votes to show rating
add to favorites
×
Save as Personal and add changes to this tab that will be seen only by you. Learn more ›
×
You can save this tab as Personal to edit and correct it or add notes. All changes will be seen only by you. Learn more »
launch autoscroll
font size
0
reset
how to read this tab
guitar tuner
edit
Autoscroll
slow
fast
+/-
esc
set tempo
stop
by Jannis Schürmann
It´s the Tab for the live version.
https://www.youtube.com/watch?v=TbIXS0OysbU


Capo 2nd Fret

[Intro]
       G              Bm             C
e|----------------------------------------------------------------------------|
B|--------------3--------------3--------------1-----------1-----1-----1h3-----|
G|-----------0-----0--------0-----0--------0-----0-----------0-----0----------|
D|--------0--------------0------------ -2--------------2----------------------|
A|--------------------2--------------3--------------3-------------------------|
E|-----3----------------------------------------------------------------------|

       G             Bm           C
e|----------------------------------------------------------------------------|
B|-----------3--------------3-----------1-----1-----1-------------------------|
G|--------------0--------------0-----------0-----0----------------------------|
D|--------0--------------0-----------2----------------------------------------|
A|--------------------2-----------3-------------------------------------------|
E|-----3----------------------------------------------------------------------|

[Verse]
       G              Bm          C
e|----------------------------------------------------------------------------|
B|-----------3--------------3-----------1-----1-----1-------------------------|
G|-----------------0-----------0-----------0-----0-----0----------------------|
D|--------0--------------0-----------2----------------------------------------|
A|--------------------2-----------3-------------------------------------------|
E|-----3----------------------------------------------------------------------| x2

      Em           D           C           G
e|----------------------------------------------------------------------------|
B|-----------3-----------3-----------1-----------3----------------------------|
G|--------------0-----2-----2-----------0-----------0-------------------------|
D|--------2--------0--------------2-----------0-------------------------------|
A|-----2-----------------------3----------------------------------------------|
E|-----------------------------------------3----------------------------------|

       C           D           G
e|----------------------------------------------------------------------------|
B|-----------1-----------3-----------3-----------3----------------------------|
G|--------------0-----2-----2-----------0-----------0-------------------------|
D|--------0--------0--------------0-----------0-------------------------------|
A|-----3----------------------------------------------------------------------|
E|-----------------------------3-----------3----------------------------------|

      G               D           C
e|----------------------------------------------------------------------------|
B|-----------3--------------3-----------1-----1-----1-------------------------|
G|-----------------0-----------0-----------0-----0-----0----------------------|
D|--------0--------------0-----------0----------------------------------------|
A|--------------------2-----------3-------------------------------------------|
E|-----3----------------------------------------------------------------------| x2

       Em          D           C          G
e|----------------------------------------------------------------------------|
B|-----------3-----------3-----------1--------------3-------------------------|
G|--------------0-----2-----2-----------0--------0-----0----------------------|
D|--------2--------0--------------2-----------0-------------------------------|
A|-----2-----------------------3----------------------------------------------|
E|-----------------------------------------3----------------------------------|
       C              D           G
e|----------------------------------------------------------------------------|
B|-----------1--------------3-----------3-----------3-------------------------|
G|--------------0--------2-----2-----------0-----------0----------------------|
D|--------2-----------0--------------0-----------0----------------------------|
A|-----3----------------------------------------------------------------------|
E|--------------------------------3-----------3-------------------------------|

[Pre-Chorus]
      Am          C           G           D
e|-----------------------------------------------------------------------------|
B|-----------1-----------1-----------3-----------3-----------------------------|
G|--------------2-----------0-----------0-----2-----2--------------------------|
D|--------2-----------2-----------0--------0-----------------------------------|
A|-----0-----------3-----------------------------------------------------------|
E|-----------------------------3-----------------------------------------------| x2

[Chorus]
       G             Bm           C            D
e|-----------------------------------------------------------------------------|
B|-----------3--------------3-----------1------------3-------------------------|
G|-----------------0-----------0-----------0------2-----2----------------------|
D|--------0--------------0-----------2---------0-------------------------------|
A|--------------------2-----------3--------------------------------------------|
E|-----3-----------------------------------------------------------------------| x2

       Em          C           G           D
e|-----------------------------------------------------------------------------|
B|-----------3-----------1-----------3-----------3-----------------------------|
G|--------------0-----------0-----------0-----2-----2--------------------------|
D|--------2-----------2-----------0--------0-----------------------------------|
A|-----2-----------3-----------------------------------------------------------|
E|-----------------------------3-----------------------------------------------| x2



[Instrumental]
       G              Bm             C
e|----------------------------------------------------------------------------|
B|--------------3--------------3--------------1-----------1h3-----------------|
G|-----------0-----0--------0-----0--------0-----0----------------------------|
D|--------0--------------0------------ -2--------------2----------------------|
A|--------------------2--------------3--------------3-------------------------|
E|-----3----------------------------------------------------------------------|

       G              Bm          C
e|----------------------------------------------------------------------------|
B|-----------3--------------3-----------1-----1-----1-------------------------|
G|--------------0--------------0-----------0-----0-----0----------------------|
D|--------0--------------0-----------2----------------------------------------|
A|--------------------2-----------3-------------------------------------------|
E|-----3----------------------------------------------------------------------|

[Verse]
       G              Bm         C
e|----------------------------------------------------------------------------|
B|-----------3--------------3-----------1-----1-----1-------------------------|
G|--------------0--------------0-----------0-----0----------------------------|
D|--------0---------------0----------2----------------------------------------|
A|--------------------2-----------3-------------------------------------------|
E|-----3----------------------------------------------------------------------| x2

      Em           D           C           G
e|----------------------------------------------------------------------------|
B|-----------3-----------3-----------1-----------3----------------------------|
G|--------------0-----2-----2-----------0-----------0-------------------------|
D|--------2--------0--------------2-----------0-------------------------------|
A|-----2-----------------------3----------------------------------------------|
E|-----------------------------------------3----------------------------------|

       C           D           G
e|----------------------------------------------------------------------------|
B|-----------1-----------3-----------3-----------3----------------------------|
G|--------------0-----2-----2-----------0-----------0-------------------------|
D|--------0--------0--------------0-----------0-------------------------------|
A|-----3----------------------------------------------------------------------|
E|-----------------------------3-----------3----------------------------------|

[Pre-Chorus]
      Am           C           G           D
e|-----------------------------------------------------------------------------|
B|-----------1-----------1-----------3-----------3-----------------------------|
G|--------------2-----------0-----------0-----2-----2--------------------------|
D|--------2-----------2-----------0--------0-----------------------------------|
A|-----0-----------3-----------------------------------------------------------|
E|-----------------------------3-----------------------------------------------| x2

[Chorus]
       G              Bm          C            D
e|-----------------------------------------------------------------------------|
B|-----------3--------------3-----------1------------3-------------------------|
G|-----------------0-----------0-----------0------2-----2----------------------|
D|--------0--------------0-----------2---------0-------------------------------|
A|--------------------2-----------3--------------------------------------------|
E|-----3-----------------------------------------------------------------------| x2
       Em          C           G           D
e|-----------------------------------------------------------------------------|
B|-----------3-----------1-----------3-----------3-----------------------------|
G|--------------0-----------0-----------0-----2-----2--------------------------|
D|--------2-----------2-----------0--------0-----------------------------------|
A|-----2-----------3-----------------------------------------------------------|
E|-----------------------------3-----------------------------------------------| x2

       G              Bm             C
e|----------------------------------------------------------------------------|
B|--------------3--------------3--------------1-----------1h3-----------------|
G|-----------0-----0--------0-----0--------0-----0----------------------------|
D|--------0--------------0------------ -2--------------2----------------------|
A|--------------------2--------------3--------------3-------------------------|
E|-----3----------------------------------------------------------------------|

[Outro]
        G              Bm             C
e|-----------------------------------------------------------------------------|
B|------3--------------3--------------1----------------------------------------|
G|------0--------------0--------------0----------------------------------------|
D|------0--------------0--------------2----------------------------------------|
A|---------------------2--------------3----------------------------------------|
E|------3----------------------------------------------------------------------| x2

        Em             C              G             D
e|-----------------------------------------------------------------------------|
B|------3--------------1--------------3-------------3--------------------------|
G|------0--------------0--------------0-------------2--------------------------|
D|------2--------------2--------------0-------------0--------------------------|
A|------2--------------3-------------------------------------------------------|
E|------------------------------------3----------------------------------------| x2


************************************

| h   Hammer-on

************************************
Suggest correction
Creating personal tab
Creating personal tab
You can edit any tab online and save it as your Personal.

You can edit, replace or remove any tab part or add personal notes – all changes will be seen only by you.

Personal tabs can be accessed anytime from any device, even offline.
Learn more »
Give kudos to tab author, rate the tab!
1 2 3 4 5
comments
print report bad tab
guest
You may want to rate the tab now too:
select rating
Wanna post a correction for this tab? Suggest correction