Oops, an error
Loading. Please wait.

Supermarket Flowers tab

version 3
version 3

Whole song

  • I made this so people can look at his tutorial all... Show more

Video

5,524 views 6 this week
1 commentread comment
1 2 3 4 5
2 more votes to show rating
add to favorites
×
Save as Personal and add changes to this tab that will be seen only by you. Learn more ›
×
You can save this tab as Personal to edit and correct it or add notes. All changes will be seen only by you. Learn more »
launch autoscroll
font size
0
reset
how to read this tab
guitar tuner
edit
Autoscroll
slow
fast
+/-
esc
set tempo
stop
All credit goes to: https://www.youtube.com/watch?v=U7iBFPDpcoU
Subscribe to him, and watch some of his other tutorials for guitar

[Intro]

C   Em   F

e|---------------------------------------------------------------|
B|-----1-------0-------1-----------------------------------------|
G|-------0-------0-------2---------------------------------------|
D|---2-------2-------3-------------------------------------------|
A|-3-------------------------------------------------------------|
E|---------0-------1---------------------------------------------|

[VERSE]

I took the supermarket flowers from the windowsill                   
I threw the day old tea from the cup
e|-------------------------------------------------------------------|
B|-----1-------0-------1-------1-------------------------------------|
G|-------0-------0-------2-------2-----------------------------------|   X2
D|---2-------2-------3-------3---------------------------------------|
A|-3-----------------------------------------------------------------|
E|---------0-------1-------1-----------------------------------------|

Packed up the photo album Matthew had made
Memories of a life that's been loved
e|-----------------------------------------------------------------------|
B|-----1-------0-------1-------1-------1-------0-------1-------1---------|
G|-------2-------0-------2-------0-------0-------0-------0-------0-------|
D|---2-------0-------3-------2-------3-------0-------2-------2-----------|
A|-0-----------------------3-------3---------------3-------3-------------|
E|---------3-------1-----------------------3-----------------------------|

Took the get well soon cards and stuffed animals
Poured the old ginger beer down the sink
e|-------------------------------------------------------------------|
B|-----1-------0-------1-------1-------------------------------------|
G|-------0-------0-------2-------2-----------------------------------|   X2
D|---2-------2-------3-------3---------------------------------------|
A|-3-----------------------------------------------------------------|
E|---------0-------1-------1-----------------------------------------|

Dad always told me, "don't you cry when you're down"
But mum, there's a tear every time that I blink
e|-----------------------------------------------------------------------|
B|-----1-------0-------1-------1-------1-------0-------1-------1---------|
G|-------2-------0-------2-------0-------0-------0-------0-------0-------|
D|---2-------0-------3-------2-------3-------0-------2-------2-----------|
A|-0-----------------------3-------3---------------3-------3-------------|
E|---------3-------1-----------------------3-----------------------------|

[PRE-CHORUS]

Oh I'm in pieces, it's tearing me up, but I know
A heart that's broke is a heart that's been loved
So I'll sing
e|-----1-------------------------------------------------------------|
B|-------3-----1-------1-------0-------------------------------------|
G|---2-----------2-------0-------0-----------------------------------|  X2
D|-0---------3-------2-------0---------------------------------------|
A|-----------------3-------------------------------------------------|
E|---------1---------------3-----------------------------------------|

[CHORUS]

Hallelujah
You were an angel in the shape of my mum
When I fell down you'd be there 
e|-------------------------------------------------------------------|
B|-----1-------0-------1-------0-------------------------------------|
G|-------0-------0-------2-------0-----------------------------------|  X2
D|---2-------2-------3-------0---------------------------------------|
A|-3-----------------------------------------------------------------|
A|---------0-------1-------3-----------------------------------------|

Holding me up
Spread your wings as you go
And when God takes you back we'll say Hallelujah
e|-------------------------------------------------------------------|
B|-----1-------1-------1-------0-------------------------------------|
G|-------2-------2-------0-------0-----------------------------------| X2
D|---2-------3-------2-------0---------------------------------------|
A|-0---------------3-------------------------------------------------|
E|---------1---------------3-----------------------------------------|

You're home
e|---------------------------------------------------------------|
B|-----1-------0-------1-------1---------------------------------|
G|-------0-------2-------2-------2-------------------------------|  X2
D|---2-------2-------3-------3-----------------------------------|
A|-3-------------------------------------------------------------|
E|---------0-------1-------1-------------------------------------|

[VERSE]

I fluffed the pillows, made the beds, stacked the chairs up
Folded your nightgowns neatly in a case
e|-------------------------------------------------------------------|
B|-----1-------0-------1-------1-------------------------------------|
G|-------0-------0-------2-------2-----------------------------------|   X2
D|---2-------2-------3-------3---------------------------------------|
A|-3-----------------------------------------------------------------|
E|---------0-------1-------1-----------------------------------------|

John said he'd drive, then put his hand on my cheek
And wiped a tear from the side of my face
e|-----------------------------------------------------------------------|
B|-----1-------0-------1-------1-------1-------0-------1-------1---------|
G|-------2-------0-------2-------0-------0-------0-------0-------0-------|
D|---2-------0-------3-------2-------3-------0-------2-------2-----------|
A|-0-----------------------3-------3---------------3-------3-------------|
E|---------3-------1-----------------------3-----------------------------|

[PRE-CHORUS]

I hope that I see the world as you did 'cause I know
A life with love is a life that's been lived
So I'll sing
e|-----1-------------------------------------------------------------|
B|-------3-----1-------1-------0-------------------------------------|
G|---2-----------2-------0-------0-----------------------------------|  X2
D|-0---------3-------2-------0---------------------------------------|
A|-----------------3-------------------------------------------------|
E|---------1---------------3-----------------------------------------|

[CHORUS]

Hallelujah
You were an angel in the shape of my mum
When I fell down you'd be there 
e|-------------------------------------------------------------------|
B|-----1-------0-------1-------0-------------------------------------|
G|-------0-------0-------2-------0-----------------------------------|  X2
D|---2-------2-------3-------0---------------------------------------|
A|-3-----------------------------------------------------------------|
A|---------0-------1-------3-----------------------------------------|

Holding me up
Spread your wings as you go
And when God takes you back we'll say Hallelujah
e|-------------------------------------------------------------------|
B|-----1-------1-------1-------0-------------------------------------|
G|-------2-------2-------0-------0-----------------------------------| X2
D|---2-------3-------2-------0---------------------------------------|
A|-0---------------3-------------------------------------------------|
E|---------1---------------3-----------------------------------------|

You're home
e|---------------------------------------------------------------|
B|-----1-------0-------1-------1---------------------------------|
G|-------0-------2-------2-------2-------------------------------|  X2
D|---2-------2-------3-------3-----------------------------------|
A|-3-------------------------------------------------------------|
E|---------0-------1-------1-------------------------------------|

[CHORUS]

Hallelujah
You were an angel in the shape of my mum
When I fell down you'd be there 
e|-------------------------------------------------------------------|
B|-----1-------0-------1-------0-------------------------------------|
G|-------0-------0-------2-------0-----------------------------------|  X2
D|---2-------2-------3-------0---------------------------------------|
A|-3-----------------------------------------------------------------|
A|---------0-------1-------3-----------------------------------------|

Holding me up
Spread your wings as you go
And when God takes you back we'll say Hallelujah
e|-------------------------------------------------------------------|
B|-----1-------1-------1-------0-------------------------------------|
G|-------2-------2-------0-------0-----------------------------------| X2
D|---2-------3-------2-------0---------------------------------------|
A|-0---------------3-------------------------------------------------|
E|---------1---------------3-----------------------------------------|

You're home
e|---------------------------------------------------------------|
B|-----1-------0-------1-------1---------------------------------|
G|-------0-------2-------2-------2-------------------------------|  X2
D|---2-------2-------3-------3-----------------------------------|
A|-3-------------------------------------------------------------|
E|---------0-------1-------1-------------------------------------|




            
            
Suggest correction
Creating personal tab
Creating personal tab
You can edit any tab online and save it as your Personal.

You can edit, replace or remove any tab part or add personal notes – all changes will be seen only by you.

Personal tabs can be accessed anytime from any device, even offline.
Learn more »
Give kudos to tab author, rate the tab!
1 2 3 4 5
comments
print report bad tab
1 comment total.
0 reply
maudept 10 Jun 18, 2017 11:53 AM

Thanks for making it ! You can't imagine how much I love you right now.

guest
You may want to rate the tab now too:
select rating
Wanna post a correction for this tab? Suggest correction