Oops, an error
Loading. Please wait.

Tenerife Sea tab

version 10
version 10

Whole song

  • This is how Ed Sheeran plays it.
  • It has different finger picking than some. I got t... Show more
  • It's a mixture between 3 or 4 different tabs. I pe... Show more
  • This is improved version of tabs to that song numb... Show more

Interactive

Video

1,813 views 24 this week
1 commentread comment
1 2 3 4 5
x 3
add to favorites
×
Save as Personal and add changes to this tab that will be seen only by you. Learn more ›
×
You can save this tab as Personal to edit and correct it or add notes. All changes will be seen only by you. Learn more »
launch autoscroll
font size
0
reset
how to read this tab
guitar tuner
edit
Autoscroll
slow
fast
+/-
esc
set tempo
stop
Author
Difficulty
About this tab version
It's a mixture between 3 or 4 different tabs. I personally didn't think either one of them didn't sound correct individually so I added extra to things to each and added other chords. I think it sounds better with added things. Was this info helpful? Yes No
Tabbed by: Kendahl Skodack (whackedout101)

Personal note: I personally noticed that all the tabs up for this song were quite good, 
but were missing some things individually so I decided to make one that mixed all of them 
together to make a version that sounded a little bit better to my own ear and I thought I'd
share it, so I'd like to give "credit" where credit is due.

I got most of the ideas from:
TZips chords
Jalen Chin tabs
Ace tabs
And a couple of others that I can't find right now.

Again, most of these seemed accurate but seem to be missing specific parts of the song and they were
missing some important aspects of the song.

TUNING:EADEBE
CAPO: 4th Fret
Note: All frets are relative to the capo.

h = Hammer on
p = Pull-off
~ = Ring out
* = Strum


Chords:
   E     F#m   A     B     C#m
e|-0-----0-----0-----0------0--------|
B|-0-----0-----0-----0------0--------|
G|-0-----0-----0-----0------0--------|
D|-2-----0-----2-----4------6--------|
A|-2-----2-----0-----2------4--------|
E|-0-----4-----x-----x------x--------|


Intro: x1
       E      F#m          A
e|-----------------------------------------------------|
B|---------0-----------0--------------0h2p0-------0----|
E|-----0-----------0-----------0---0----------0--------|
D|---2---2-------4---4-------2---2----------2---2------| 3x
A|-------------------------0---------------------------|
E|-0-----------2---------------------------------------|
      C#m     B            A  
e|-----------------------------------------------------------------------|
B|---------0-----------0-----------------------------------------------0-|
E|-----0-----------0-------------0-----------0-----------0-----------0---|
D|---6---6-------4---4---------2---2-------2---2-------2---2-------2-----|
A|-4-----------2-----------0-----------0-----------0-----------0---------|
E|-----------------------------------------------------------------------|

Verse 1: x1 (You look so wonderful in your dress, I love your hair like that)
   E           F#m         A        
e|------------------------------------------------------|
B|---------0-----------0--------------0h2p0-----0-------|
E|-----0-----------0-----------0---0---------0----------|
D|---2---2-------4---4-------2---2---------2---2--------| 2x
A|-------------------------0----------------------------|
E|-0-----------2----------------------------------------|
(The way it falls on the side of your neck . . .)
    E          F#m         A
e|-------------------------------------------------|
B|---------0-----------0-------------0-----------0-|
E|-----0-----------0-------------0-----------0-----|
D|---2---2-------4---4---------2---2-------2---2---| 
A|-------------------------0-----------0-----------|
E|-0-----------2-----------------------------------|
(Down your shoulders and back)
   C#m         B           A
e|-------------------------------------------------|
B|---------0-----------0-------------------------0-|
E|-----0-----------0-------------0-----------0-----|
D|---6---6-------4---4---------2---2-------2-------|
A|-4-----------2-----------0-----------0-----------|
E|-------------------------------------------------|
(We are surrounded by all of these lies . . .)
    E          F#m         A    
e|-------------------------------------------------|
B|---------0-----------0-----------0----------0----|
E|-----0-----------0-----------0----------0--------|
D|---2---2-------4---4-------2---2------2---2------| 
A|-------------------------0----------0------------|
E|-0-----------2-----------------------------------|
(And people who talk too much)
   E           F#m         A         
e|--------------------------------------------------|
B|---------0-----------0--------------0h2p0------0--|
E|-----0-----------0-----------0---0----------0-----|
D|---2---2-------4---4-------2---2----------2---2---| 
A|-------------------------0------------------------|
E|-0-----------2------------------------------------|
(You've got the kind of look in your eyes . . . )
   E           F#m         A
e|-------------------------------------------------|
B|---------0-----------0-----------0----------0----|
E|-----0-----------0-----------0----------0--------|
D|---2---2-------4---4-------2---2------2---2------| 
A|-------------------------0----------0------------|
E|-0-----------2-----------------------------------|
(As if no one knows anything, but us)
   C#m         B           A
e|-----------------------------------------------|
B|---------0-----------0-------------------------|
E|-----0-----------0-------------0-----------0---|
D|---6---6-------4---4---------2---2-------2---2-|
A|-4-----------2-----------0-----------0---------|
E|-----------------------------------------------|

Pre-chorus 1: x1 (Should this be the last thing I see, I want you to know it's enough for 
me . . .)
   A          (A)         E            B
e|-------------------------------------------------|
B|----------0-----------0-----------0------------0-|
E|------0-----------0-----------0-----------0------|
D|----2---2-------2---2-------2---2-------4---4----| 2x
A|-0-----------0-----------------------2-----------|
E|-------------------------0-----------------------|
(And all that you are is all that I'll ever need)
   A          (A)          E           (E)
e|-------------------------------------------------|
B|----------0-----------0-----------0----------0---|
E|------0-----------0-----------0----------0-------|
D|----2---2-------2---2-------2---2------2---2-----| 
A|-0-----------0-----------------------2-----------|
E|-------------------------0-----------------------|
  B
e|---------------------------|
B|----------0-----------0----|
E|-------0-----------0-------|
D|----4---4---4---4---4------|
A|2--------------------------|
E|---------------------------|
   B
e|---------------------------------------------------------------------------|
B|-----------0-----------0---------------------------------------------------|
E|-------0-----------0-------------------------------------------------------|
D|-4---4---4---4---4---4-----------------------------------------------------|
A|---------------------------------------------------------------------------|
E|---------------------------------------------------------------------------|

Chorus 1: (I'm so in love . . . )
e|-----------------------------------------------------|
B|---------0-----------0--------------0h2p0------0-----|
E|-----0-----------0-----------0---0--------0----------|
D|---2---2-------4---4-------2---2------------2--------| 3x
A|-------------------------0---------------------------|
E|-0-----------2---------------------------------------|

e|------------------------------------------------|
B|---------0------------0----------------------0--|
E|-----0-----------0-------------0-----------0----|
D|---2---2-------4---4---------2---2-------2------|
A|-------------------------0-----------0----------|
E|-0-----------2----------------------------------|

Verse 2: (Same as verse 1, but here are the tabs again)

(You look beautiful in this light, your silhouette over me)
 E           F#m         A        
e|------------------------------------------------------|
B|---------0-----------0--------------0h2p0-----0-------|
E|-----0-----------0-----------0---0---------0----------|
D|---2---2-------4---4-------2---2---------2---2--------| 2x
A|-------------------------0----------------------------|
E|-0-----------2----------------------------------------|
(The way it brings out the blue in your eyes. . .)
    E          F#m         A
e|-------------------------------------------------|
B|---------0-----------0-------------0-----------0-|
E|-----0-----------0-------------0-----------0-----|
D|---2---2-------4---4---------2---2-------2---2---| 
A|-------------------------0-----------0-----------|
E|-0-----------2-----------------------------------|
(It's the Tenerife Sea)
   C#m         B           A
e|-------------------------------------------------|
B|---------0-----------0-------------------------0-|
E|-----0-----------0-------------0-----------0-----|
D|---6---6-------4---4---------2---2-------2-------|
A|-4-----------2-----------0-----------0-----------|
E|-------------------------------------------------|
(And all of the voices surrounding us here . .)
    E          F#m         A    
e|-------------------------------------------------|
B|---------0-----------0-----------0----------0----|
E|-----0-----------0-----------0----------0--------|
D|---2---2-------4---4-------2---2------2---2------| 
A|-------------------------0----------0------------|
E|-0-----------2-----------------------------------|
(They just fade out when you take a breath)
   E           F#m         A         
e|--------------------------------------------------|
B|---------0-----------0--------------0h2p0------0--|
E|-----0-----------0-----------0---0----------0-----|
D|---2---2-------4---4-------2---2----------2---2---| 
A|-------------------------0------------------------|
E|-0-----------2------------------------------------|
(Just say the world and now we'll disappear . . .)
   E           F#m         A
e|-------------------------------------------------|
B|---------0-----------0-----------0----------0----|
E|-----0-----------0-----------0----------0--------|
D|---2---2-------4---4-------2---2------2---2------| 
A|-------------------------0----------0------------|
E|-0-----------2-----------------------------------|
(Oh, into the wilderness)
   C#m         B           A
e|-----------------------------------------------|
B|---------0-----------0-------------------------|
E|-----0-----------0-------------0-----------0---|
D|---6---6-------4---4---------2---2-------2---2-|
A|-4-----------2-----------0-----------0---------|
E|-----------------------------------------------|

Pre-chorus 2: Repeat the pre-chorus 1 (again, here are the tabs):
x1 (Should this be the last thing I see, I want you to know it's enough for me . . .)
   A          (A)         E            B
e|-------------------------------------------------|
B|----------0-----------0-----------0------------0-|
E|------0-----------0-----------0-----------0------|
D|----2---2-------2---2-------2---2-------4---4----| 2x
A|-0-----------0-----------------------2-----------|
E|-------------------------0-----------------------|
(And all that you are is all that I'll ever need)
   A          (A)          E           (E)
e|-------------------------------------------------|
B|----------0-----------0-----------0----------0---|
E|------0-----------0-----------0----------0-------|
D|----2---2-------2---2-------2---2------2---2-----| 
A|-0-----------0-----------------------2-----------|
E|-------------------------0-----------------------|
   B
e|-----------|
B|--------0--|
E|-----0-----|
D|---4---4---| 4x
A|-2---------|
E|-----------|

Chorus 2: (I'm so in love . . .)
   E          F#m         A
e|-----------------------------------------------|
B|----------0-----------0------------0h2p0-------|
E|-0----0----------0-----------0---0-------0---0-|
D|-2--2---2------4---4-------2---2-----------2---| 
A|-2-----------------------0---------------------|
E|-0-----------2---------------------------------|
   E          F#m          A  
e|-----------------------------------------------------|
B|---------0-----------0--------------0h2p0------0-----|
E|-----0-----------0-----------0---0--------0----------|
D|---2---2-------4---4-------2---2------------2--------| x2
A|-------------------------0---------------------------|
E|-0-----------2---------------------------------------|
   E           F#m         A
e|-------------------------------------------------|
B|---------0------------0-----------------------0--|
E|-----0-----------0-------------0-----------0-----|
D|---2---2-------4---4---------2---2-------2-------|
A|-------------------------0-----------0-----------|
E|-0-----------2-----------------------------------|

Bridge: (Lumiere...) Repeat this section 3x
(Lumiere . . .)
  C#m         (C#m)        A
e|---------------------------------------------------------------------------|
B|-----------0-----------0-----------0-----------0---------------------------|
E|-------0-----------0-----------0-----------0-------------------------------|
D|-----6---6-------6---6-------2---2-------2---2-----------------------------|
A|-4-----------4-----------0-----------0-------------------------------------|
E|---------------------------------------------------------------------------|
(Darling)
   B           (B)        E       
e|---------------------------------------------------------------------------|
B|-----------0-----------0-----------0-----------0---------------------------|
E|-------0-----------0-----------0-----------0-------------------------------|
D|-----4---4-------4---4-------2---2-------2---2-----------------------------|
A|-2-----------2-------------------------------------------------------------|
E|-------------------------0-----------0-------------------------------------|

(Lumiere, over me)
   C#m        (C#m)         A
e|---------------------------------------------------------------------------|
B|-----------0-----------0-----------0-----------0---------------------------|
E|-------0-----------0-----------0-----------0-------------------------------|
D|-----6---6-------6---6-------2---2-------2---2-----------------------------|
A|-4-----------4-----------0-----------0-------------------------------------|
E|---------------------------------------------------------------------------|
   B
e|---------------------------------------------------------------------------|
B|-----------0-----------0-----------0-----------0---------------------------|
E|-------0-----------0-----------0-----------0-------------------------------|
D|-----4---4---4---4---4---4---4---4---4---4---4-----------------------------|
A|-2-------------------------------------------------------------------------|
E|---------------------------------------------------------------------------|
Pre-chorus 3: 
  (Should....Last....See....Want.....Enough...Me........All.....is all)
     A*      E*       B*     A*       E*      B*        A*       E*
e|---0-------0--------0------0--------0-------0---------0--------0-----|
B|---0-------0--------0------0--------0-------0---------0--------0-----|
E|---0-------0--------0------0--------0-------0---------0--------0-----|
D|---2-------2--------4------2--------2-------4---------2--------2-----| 
A|---0-------2--------2------0--------2-------2---------0--------2-----|
E|-----------0------------------------0--------------------------0-----|
  
   B
e|------------|
B|---------0--|
E|-----0------|
D|---4---4----| 4x
A|-2----------|
E|------------|
   Need...

Chorus 3: (Note: However, you can play it like you played the last two choruses)
e|---------------------------|
B|---9--9--7--7--5--5--5--5--|
E|--0--0--0--0--0--0--0--0---| 3x
D|-6--6--4--4--2--2--2--2----|
A|---------------------------|
E|---------------------------|


e|------------------|
B|---9--9--7--7-----|
E|--0--0--0--0------|
D|-6--6--4--4----2~-|
A|---------------0~-|
E|------------------|

Outro: (You look so wonderful in your dress, I loved your hair like that)
  E            F#m           A
e|---------------------------------------------------|
B|---------0-----------0-------------0-------------0-|
E|-----0-----------0-------------0-------------0-----|
D|---2---2-------4---4---------2---2---------2---2---| x2
A|---------------------------0-------------0---------|
E|-0-----------2-------------------------------------|
(And in the moment I knew you, Beth . . .)
  E            F#m           A*
e|-------------------------------|
B|---------0-----------0---------|
E|-----0-----------0---------0~--|
D|---2---2-------4---4-------2~--| 
A|---------------------------0~--|
E|-0-----------2-----------------|


Suggest correction
Creating personal tab
Creating personal tab
You can edit any tab online and save it as your Personal.

You can edit, replace or remove any tab part or add personal notes – all changes will be seen only by you.

Personal tabs can be accessed anytime from any device, even offline.
Learn more »
Give kudos to tab author, rate the tab!
1 2 3 4 5
comments
print report bad tab
1 comment total.
0 reply
mr.great.coffee 73 Feb 21, 2017 02:41 PM

Love the combination with the lyrics, looks so in order and clear, ty for the tab. very good

guest
You may want to rate the tab now too:
select rating
Wanna post a correction for this tab? Suggest correction