Oops, an error
Loading. Please wait.

Tenerife Sea chords

version 7
version 7

Whole song

Interactive

Video

1,927 views 15 this week
1 commentread comment
1 2 3 4 5
3 more votes to show rating
add to favorites
×
Save as Personal and add changes to this tab that will be seen only by you. Learn more ›
×
You can save this tab as Personal to edit and correct it or add notes. All changes will be seen only by you. Learn more »
launch autoscroll
font size
0
reset
transpose
0
reset
display chords
guitar tuner
edit
Autoscroll
slow
fast
+/-
esc
set tempo
stop
Strumming
There is no strumming pattern for this song yet. and get +5 IQ
So this is just a simpler version i messed around with for when i don't want to retune. I just 
pluck a triplet chord, then play the notes from highest to lowest, so very easy to do, as long
as you know where your chords are. 

Capo 4. 

[Intro and Verse]

e|-------------------------------------------------------------------------|
B|--------------------------0h2-0---------------------------0h2-0----------|
G|------------------2--2----------------------------2--2-------------------|
D|--2--2----4--4----2---2-----------2--2----4--4----2---2------------------|
A|--2---2---4---4---0----0----------2---2---4---4---0----0-----------------|
E|--0----0--2----2------------------0----0--2----2-------------------------|

e|-------------------------------------------------------------------------|
B|--------------------------0h2-0------------------------------------------|
G|------------------2--2-----------6--6----4--4----2--2----2--2------------|
D|--2--2----4--4----2---2----------6---6---4---4---2---2---2---2-----------|
A|--2---2---4---4---0----0---------4----4--2----2--0----0--0----0----------|
E|--0----0--2----2---------------------------------------------------------|

I just play chords for the prechorus, just single strums with my thumb per chord. 
The chord order is A, E, B. It goes A for two measures, E for one measure, and B for one measure.

Then for the chorus, make it a bit more upbeat with same chord order as the intro and verse, E, 
F#m, A.
E for one measure, F#m for one measure, and A for two measures. 
You can add the little hammer-on if you want, but you don't have to. 


[Bridge]

(The lumiere part)

e|---------------------------------------------------------------------------|
B|---------------------------------------------------------------------------|
G|--4--4----4--4----2--2----2--2--------------------4--4----4--4-------------|
D|--4---4---4---4---2---2---2---2---2--2----2--2----4---2---2---2------------|
A|--2----2--2----2--0----0--0----0--2---2---2---2---2----2--2----2-----------|
E|----------------------------------0----0--0----0---------------------------|

e|---------------------------------------------------------------------------|
B|---------------------------------------------------------------------------|
G|--4--4----4--4----2--2----2--2----4--4----4--4----4--4----4--4-------------|
D|--4---4---4---4---2---2---2---2---4---4---4---4---4---4---4---4------------|
A|--2----2--2----2--0----0--0----0--2----2--2----2--2--- 2--2----2-----------|
E|---------------------------------------------------------------------------|


[Verse]

E             F#m       A
  You look so wonderful in your dress
E            F#m       A
 I love your hair like that
E           F#m          A
 The way it falls on the side of your neck
C#m        B             A
 Down your shoulders and back

E         F#m          A
 We are surrounded by all of these lies
     E          F#m      A
 And people who talk too much
E                F#m     A
 You've got the kind of look in your eyes
       C#m         B            A
As if no one knows anything but us


[Pre-Chorus]

   A                  E            B
And should this be the last thing I see
  A                      E          B
I want you to know it's enough for me
      A                    E                  B
Cause all that you are is all that I'll ever need


[Chorus]

          E   F#m   A
I'm so in love
      E   F#m   A
So in love
      E   F#m   A
So in love
      E   F#m   A
So in love


[Verse]

E             F#m       A
 You look so beautiful in this light
E            F#m       A
 Your silhouette over me
E            F#m           A
 The way it brings out the blue in your eyes
       C#m     B    A
is the Tenerife Sea 
    E          F#m        A
And all of the voices surrounding us here
          E             F#m         A
They just fade out when you take a breath
E             F#m           A
Just say the word and now we'll disappear
    C#m      B          A
oh, into the wilderness


[Pre-Chorus]

    A                  E            B
And should this be the last thing I see
  A                      E          B
I want you to know it's enough for me
      A                    E                  B
Cause all that you are is all that I'll ever need


[Chorus]

          E   F#m   A
I'm so in love
      E   F#m   A
So in love
      E   F#m   A
So in love
      E   F#m   A
So in love


[Bridge] x6

C#m A   B  E
Lumière darling
C#m  A        B
Lumière over me 


[Pre-Chorus]

   A                  E            B
And should this be the last thing I see
  A                      E          B
I want you to know it's enough for me
      A                    E                  B
Cause all that you are is all that I'll ever need


[Chorus]

          E   F#m   A
I'm so in love
      E   F#m   A
So in love
      E   F#m   A
So in love
      E   F#m   A
So in love


[Outro]

E            F#m       A
 You look so wonderful in your dress
E             F#m       A
 I loved your hair like that
E            F#m      A
 And in the moment I knew you best


************************************
| h   Hammer-on
************************************
Suggest correction
Creating personal tab
Creating personal tab
You can edit any tab online and save it as your Personal.

You can edit, replace or remove any tab part or add personal notes – all changes will be seen only by you.

Personal tabs can be accessed anytime from any device, even offline.
Learn more »
Give kudos to tab author, rate the tab!
1 2 3 4 5
comments
print report bad tab
1 comment total.
0 reply
LittleMartin549 80 Apr 08, 2016 07:27 AM

If you have any questions, please leave them below. I just want to make this as easy to understand as i can!

guest
You may want to rate the tab now too:
select rating
Wanna post a correction for this tab? Suggest correction