Oops, an error
Loading. Please wait.

The A Team Tab

version 2
version 2

Whole song

Interactive

Video

34,202 views 24 this week
no commentswrite comment
1 2 3 4 5
accurate
x 4
add to favorites
launch autoscroll
font size
0
reset
how to read this tab
guitar tuner
Autoscroll
slow
fast
+/-
esc
set tempo
stop
Help us to improve Ultimate-Guitar.com Take our survey!
×
Difficulty
novice
-------------------------------------------------------------------------------
                             A Team(Solo) - Ed Sheeran
-------------------------------------------------------------------------------
Tabbed by: Jake Jonas
E-mail: sly_trooper@hotmail.com

Tuning: standard (EADGBe)

e|------------------------------------------------------------------------------|
B|---12 b^½-------------------------------10----------10p9----------------------|
G|--------------9----------------9h11----------9-------------11p9---------------|
D|---------------------9/11-----------------------------------------------------|
A|------------------------------------------------------------------------------|
E|------------------------------------------------------------------------------|


e|---------------------------------------------------------------------------|
B|------------------------------------------------------10-------------------|
G|------------------------------9-------------------9------------------------|
D|------------9----------9h11----------------9h11----------------------------|
A|----9--11--------11----------------9--11-----------------------------------|
E|---------------------------------------------------------------------------|
Pm    .  .         .                 .  .


Key/Legend:

b^½  =   Bend half a step
/        =   Slide up
h       =   Hammer - on
p       =   Pull - off
Pm    =   Palm mute
Suggest correction
comments
print report bad tab
guest
You may want to rate the tab now too:
select rating
Please do not post tabs as comments. Select "correction" instead!