Oops, an error
Loading. Please wait.
We have an official The A Team tab made by UG professional guitarists. Check out the tab »
×

The A Team tab

version 5
version 5

Whole song

Interactive

Video

430 views 18 this week
2 commentsread comments
1 2 3 4 5
1 last vote to show rating
add to favorites
×
Save as Personal and add changes to this tab that will be seen only by you. Learn more ›
×
You can save this tab as Personal to edit and correct it or add notes. All changes will be seen only by you. Learn more »
launch autoscroll
font size
0
reset
how to read this tab
guitar tuner
edit
Autoscroll
slow
fast
+/-
esc
set tempo
stop
About this tab version
A team by ed sheeran with capo 2nd fret, includes a LOT of finger picking the way its played in the original track. Was this info helpful? Yes No

-----------------------------------------------------------------------------------
                              THE A TEAM - ED SHEERAN
                        Capo 2nd fret / Standard tuning
          video lesson: https://www.youtube.com/watch?v=wBqMpAnsbPM&t=173s
based off the studio recorded version: https://www.youtube.com/watch?v=WYABDdnBu0w
-----------------------------------------------------------------------------------

( ) - strum the string with the help of your middle finger on that fret/string
 x  - slap the top strings with the help of your thumb

[Intro]

     G                                                                    D        Em
                                                                  (strum:D  U  D    U)
e|--------------------|--------------------|--------------------------|--2--2--2----0--|
B|--------------------|--------------------|--------------------------|--3--3--3----0--|
G|-----0-----------0--|-----0-----------0--|-----0-----------0-----0--|--2--2--2-------|
D|-----0-----0--------|-----0-----0--------|-----0-----0-----------0--|----------------|
A|--------------2-----|--------------2-----|--------------2-----------|----------------|
E|--3-----3-----------|--3-----3-----------|--3-----3-----------3-----|----------------|

    Em                               C                   G
e|--------------------------------|------------------|------------------------|
B|-----(0)--------(0)--0-----(0)--|-----1--(1)--0----|-----(0)--------(0)--0--|
G|-------------0------------------|-----0---0---0----|-------------0----------|
D|--------------------------------|------------------|------------------------|
A|------x----------x----------x---|--3------x--------|------x----------x------|
E|--0---x---0------x------0---x---|---------x--------|--3---x---3------x------|

e|----------------------------|
B|-----(0)---------------(0)--|
G|----------0h2-----2p0-------|
D|----------------------------|
A|------x--------x--------x---|
E|--3---x--------x--------x---|

[Verse 1]
   G
e|------------------------|
B|-----(0)--------(0)--0--|
G|-------------0----------|
D|------------------------| 3x
A|------x----------x------|
E|--3---x---3------x------|

    G/F#                     Em                       C
e|------------------------|------------------------|------------------------|
B|-----(0)--------(0)-----|-----(0)--------(0)--0--|-----(1)-----1--(1)--0--|
G|----------0----------0--|-------------0----------|------------------------|
D|------------------------|------------------------|------------------------|
A|------x----------x------|------x----------x------|--3---x---3------x------|
E|--3---x------2---x------|--0---x---0------x------|------x----------x------|
    G
e|--------------------------------|---------------|
B|-----(0)--------(0)--0-----(0)--|---------------|
G|-------------0------------------|--0h2-----2p0--|
D|--------------------------------|---------------|
A|------x----------x----------x---|-------x-------|
E|--3---x---3------x------3---x---|-------x-------|
   G
e|------------------------|
B|-----(0)--------(0)--0--|
G|-------------0----------|
D|------------------------| 3x
A|------x----------x------|
E|--3---x---3------x------|

    G/F#                     Em                       C
e|------------------------|------------------------|------------------------|
B|-----(0)--------(0)-----|-----(0)--------(0)--0--|-----(1)-----1--(1)--0--|
G|----------0----------0--|-------------0----------|------------------------|
D|------------------------|------------------------|------------------------|
A|------x----------x------|------x----------x------|--3---x---3------x------|
E|--3---x------2---x------|--0---x---0------x------|------x----------x------|

    G
e|------------------------|
B|-----(0)--------(0)--0--|
G|-------------0----------|
D|------------------------| 2x
A|------x----------x------|
E|--3---x---3------x------|


[Pre-Chorus]

    Am7                            C                            G
e|-----(3)--------(3)--3--|    |-----(3)--------(3)--3--|    |------------------------|
B|------1----------1------|    |------1----------1------|    |-----(0)--------(0)--0--|
G|-------------0----------|    |-------------0----------|    |-------------0----------|
D|------------------------| 2x |------------------------| 2x |------------------------| 2x
A|--0---x---0------x------|    |--3---x---0------x------|    |------x----------x------|
E|------x----------x------|    |------x----------x------|    |--3---x---3------x------|

    D
e|------------------------|
B|-----(3)--------(3)--3--|
G|------2------2---2------|
D|--0-------0-------------| 2x
A|------x----------x------|
E|------x----------x------|

    Am7                            C                            G
e|-----(3)--------(3)--3--|    |-----(3)--------(3)--3--|    |------------------------|
B|------1----------1------|    |------1----------1------|    |-----(0)--------(0)--0--|
G|-------------0----------|    |-------------0----------|    |-------------0----------|
D|------------------------| 2x |------------------------| 2x |------------------------| 2x
A|--0---x---0------x------|    |--3---x---0------x------|    |------x----------x------|
E|------x----------x------|    |------x----------x------|    |--3---x---3------x------|

    D
e|------------------------|
B|-----(3)--------(3)--3--|
G|------2------2---2------|
D|--0-------0-------------| 2x
A|------x----------x------|
E|------x----------x------|

[Chorus 1]
    Em                       C                        G                        G
e|------------------------|------------------------|------------------------|------------------------|
B|-----(0)--------(0)--0--|-----(1)-----1--(1)--0--|-----(0)--------(0)--0--|-----(0)--------(0)--0--|
G|-------------0----------|------0----------0------|-------------0----------|-------------0----------|
D|------------------------|------------------------|------------------------|------------------------| 6x
A|------x----------x------|--3---x---3------x------|------x----------x------|------x----------x------|
E|--0---x---0------x------|------x----------x------|--3---x---3------x------|--3---x---3------x------|

[Verse 2]

   G
e|------------------------|
B|-----(0)--------(0)--0--|
G|-------------0----------|
D|------------------------| 3x
A|------x----------x------|
E|--3---x---3------x------|

    G/F#                     Em                       C
e|------------------------|------------------------|------------------------|
B|-----(0)--------(0)-----|-----(0)--------(0)--0--|-----(1)-----1--(1)--0--|
G|----------0----------0--|-------------0----------|------------------------|
D|------------------------|------------------------|------------------------|
A|------x----------x------|------x----------x------|--3---x---3------x------|
E|--3---x------2---x------|--0---x---0------x------|------x----------x------|
    G
e|--------------------------------|---------------|
B|-----(0)--------(0)--0-----(0)--|---------------|
G|-------------0------------------|--0h2-----2p0--|
D|--------------------------------|---------------|
A|------x----------x----------x---|-------x-------|
E|--3---x---3------x------3---x---|-------x-------|
   G
e|------------------------|
B|-----(0)--------(0)--0--|
G|-------------0----------|
D|------------------------| 3x
A|------x----------x------|
E|--3---x---3------x------|

    G/F#                     Em                       C
e|------------------------|------------------------|------------------------|
B|-----(0)--------(0)-----|-----(0)--------(0)--0--|-----(1)-----1--(1)--0--|
G|----------0----------0--|-------------0----------|------------------------|
D|------------------------|------------------------|------------------------|
A|------x----------x------|------x----------x------|--3---x---3------x------|
E|--3---x------2---x------|--0---x---0------x------|------x----------x------|

    G
e|------------------------|
B|-----(0)--------(0)--0--|
G|-------------0----------|
D|------------------------| 2x
A|------x----------x------|
E|--3---x---3------x------|

[Pre-Chorus]

    Am7                            C                            G
e|-----(3)--------(3)--3--|    |-----(3)--------(3)--3--|    |------------------------|
B|------1----------1------|    |------1----------1------|    |-----(0)--------(0)--0--|
G|-------------0----------|    |-------------0----------|    |-------------0----------|
D|------------------------| 2x |------------------------| 2x |------------------------| 2x
A|--0---x---0------x------|    |--3---x---0------x------|    |------x----------x------|
E|------x----------x------|    |------x----------x------|    |--3---x---3------x------|

    D
e|------------------------|
B|-----(3)--------(3)--3--|
G|------2------2---2------|
D|--0-------0-------------| 2x
A|------x----------x------|
E|------x----------x------|

    Am7                            C                                G
e|-----(3)--------(3)--3--|    |-----(3)--------(3)--3--|     |------------------------|
B|------1----------1------|    |------1----------1------|     |-----(0)--------(0)--0--|
G|-------------0----------|    |-------------0----------|     |-------------0----------|
D|------------------------| 2x |------------------------| 2x  |------------------------| 2x
A|--0---x---0------x------|    |--3---x---0------x------|     |------x----------x------|
E|------x----------x------|    |------x----------x------|     |--3---x---3------x------|

    D
e|------------------------|
B|-----(3)--------(3)--3--|
G|------2------2---2------|
D|--0-------0-------------| 2x
A|------x----------x------|
E|------x----------x------|

[Chorus 2]

    Em                       C                        G                        G
e|------------------------|------------------------|------------------------|------------------------|
B|-----(0)--------(0)--0--|-----(1)-----1--(1)--0--|-----(0)--------(0)--0--|-----(0)--------(0)--0--|
G|-------------0----------|------0----------0------|-------------0----------|-------------0----------|
D|------------------------|------------------------|------------------------|------------------------| 4x
A|------x----------x------|--3---x---3------x------|------x----------x------|------x----------x------|
E|--0---x---0------x------|------x----------x------|--3---x---3------x------|--3---x---3------x------|

[Bridge]

    Am7                            C                            Em
e|-----(3)--------(3)--3--|    |-----(3)--------(3)--3--|    |------------------------|
B|------1----------1------|    |------1----------1------|    |-----(0)--------(0)--0--|
G|-------------0----------|    |-------------0----------|    |-------------0----------|
D|------------------------| 2x |------------------------| 2x |------------------------| 2x
A|--0---x---0------x------|    |--3---x---0------x------|    |------x----------x------|
E|------x----------x------|    |------x----------x------|    |--0---x---0------x------|

    G
e|-----(0)--------(0)--0--|
B|------------------------|
G|-------------0----------|
D|------------------------| 2x
A|------x----------x------|
E|--3---x---3------x------|

    Am7                            C
e|-----(3)--------(3)--3--|    |-----(3)--------(3)--3--|
B|------1----------1------|    |------1----------1------|
G|-------------0----------|    |-------------0----------|
D|------------------------| 2x |------------------------| 2x
A|--0---x---0------x------|    |--3---x---0------x------|
E|------x----------x------|    |------x----------x------|

    Em                       C                        G                        G
e|------------------------|------------------------|------------------------|------------------------|
B|-----(0)--------(0)--0--|-----(1)-----1--(1)--0--|-----(0)--------(0)--0--|-----(0)--------(0)--0--|
G|-------------0----------|------0----------0------|-------------0----------|-------------0----------|
D|------------------------|------------------------|------------------------|------------------------| 2x
A|------x----------x------|--3---x---3------x------|------x----------x------|------x----------x------|
E|--0---x---0------x------|------x----------x------|--3---x---3------x------|--3---x---3------x------|

[Pre-Chorus]

    Am7                            C                            G
e|-----(3)--------(3)--3--|    |-----(3)--------(3)--3--|    |------------------------|
B|------1----------1------|    |------1----------1------|    |-----(0)--------(0)--0--|
G|-------------0----------|    |-------------0----------|    |-------------0----------|
D|------------------------| 2x |------------------------| 2x |------------------------| 2x
A|--0---x---0------x------|    |--3---x---0------x------|    |------x----------x------|
E|------x----------x------|    |------x----------x------|    |--3---x---3------x------|

    D
e|------------------------|
B|-----(3)--------(3)--3--|
G|------2------2---2------|
D|--0-------0-------------| 2x
A|------x----------x------|
E|------x----------x------|

    Am7                            C                                G
e|-----(3)--------(3)--3--|    |-----(3)--------(3)--3--|     |------------------------|
B|------1----------1------|    |------1----------1------|     |-----(0)--------(0)--0--|
G|-------------0----------|    |-------------0----------|     |-------------0----------|
D|------------------------| 2x |------------------------| 2x  |------------------------| 2x
A|--0---x---0------x------|    |--3---x---0------x------|     |------x----------x------|
E|------x----------x------|    |------x----------x------|     |--3---x---3------x------|

    D
e|------------------------|
B|-----(3)--------(3)--3--|
G|------2------2---2------|
D|--0-------0-------------| 2x
A|------x----------x------|
E|------x----------x------|

[Chorus 3]

    Em       C      G
e|-------|-------|-------|
B|--0----|--1----|--0----|
G|--0----|--0----|--0----|
D|--2----|--2----|--0----| 4x
A|-------|--3----|-------|
E|--0----|-------|--3----|

    Em                       C                        G                        G
e|------------------------|------------------------|------------------------|------------------------|
B|-----(0)--------(0)--0--|-----(1)-----1--(1)--0--|-----(0)--------(0)--0--|-----(0)--------(0)--0--|
G|-------------0----------|------0----------0------|-------------0----------|-------------0----------|
D|------------------------|------------------------|------------------------|------------------------| 3x
A|------x----------x------|--3---x---3------x------|------x----------x------|------x----------x------|
E|--0---x---0------x------|------x----------x------|--3---x---3------x------|--3---x---3------x------|

    Em                       C                        G                        G
e|------------------------|------------------------|------------------------|---------------------------|
B|-----(0)--------(0)--0--|-----(1)-----1--(1)--0--|-----(0)--------(0)--0--|-----(0)--------(0)--0-----|
G|-------------0----------|------0----------0------|-------------0----------|-------------0-------------|
D|------------------------|------------------------|------------------------|---------------------------|
A|------x----------x------|--3---x---3------x------|------x----------x------|------x----------x---------|
E|--0---x---0------x------|------x----------x------|--3---x---3------x------|--3---x---3------x------3--|

*********************

| p Pull off
| h Hammer on
| x Dead note/slap

*********************
Suggest correction
Creating personal tab
Creating personal tab
You can edit any tab online and save it as your Personal.

You can edit, replace or remove any tab part or add personal notes – all changes will be seen only by you.

Personal tabs can be accessed anytime from any device, even offline.
Learn more »
Give kudos to tab author, rate the tab!
1 2 3 4 5
comments
print report bad tab
2 comments total.
0 reply
techguy138 10 Jun 24, 2017 03:11 PM

thanks,dont think i could remember half an hour

guest
You may want to rate the tab now too:
select rating
Wanna post a correction for this tab? Suggest correction