Oops, an error
Loading. Please wait.

The Man solo tab

version 1
version 1

Solo

Whole song

1,939 views 21 this week
1 commentread comment
1 2 3 4 5
x 7
add to favorites
×
Save as Personal and add changes to this tab that will be seen only by you. Learn more ›
×
You can save this tab as Personal to edit and correct it or add notes. All changes will be seen only by you. Learn more »
launch autoscroll
font size
0
reset
how to read this tab
guitar tuner
edit
Autoscroll
slow
fast
+/-
esc
set tempo
stop
Couldn't find an accurate solo all the way to the end, so I made one.
Big thanks to Ed Sheeran for making incredible music.

(SOLO ONLY)

Standard Tuning
Capo 2

h - hammer on
p - pull off
/ - slide up
\ - slide down
X - muted string


|----------------------------------------------------|
|---------------------------1h3p(1)---1---1----------|
|--------0-------2-------(2)------------------2p0--2-|
|0--0h2------2---------------------------------------|
|----------------------------------------------------|
|----------------------------------------------------|

|---0h3---1p0-------------------------|
|(1)-----------5-----3----1-----------|
|-----------------5----------2-----0--|
|-------------------------------------|
|-------------------------------------|
|-------------------------------------|

|1/3---3------3------3------3-------------|
|2/5-----5------5------5------5\3---1-----|
|---------------------------------------2-|
|-----------------------------------------|
|-----------------------------------------|
|-----------------------------------------|

X = mute open string slightly with finger on G5
|---------------------------------------------|
|----5/6\5------3-----------------------------|
|--5--------5-------5---2h5-------2-----------|
|X--------------------------------------------|
|---------------------------------------------|
|---------------------------------------------|

|-------------------------------|
|-------------------------------|
|-------------------------------|
|-----5-------------------------|
|5h7-----7\5---3-----------3----|
|------------------5----------5-|

|----------------------------------------------------------------------|
|------------------------------6-/-8---8---8---8---6---6---5-----------|
|-----------5-----5h7---5------7-/-9---9---9---9---7---7------5-----2--|
|-----5h7--------------------------------------------------------------|
|5h7-------------------------------------------------------------------|
|----------------------------------------------------------------------|


X = mute open string slightly with finger on G5
|---------------------------------------------|
|----5/6\5-------3----------------------------|
|--5---------5-------5-------2---2------------|
|X--------------------------------------------|
|---------------------------------------------|
|---------------------------------------------|

Quick hammer on, beat one starts on D2        5/b\ = slight string vibrato
|--------------------------------------|
|--------------------------------------|
|------0-------------------------------|
|0h2-------2p0---------0---------------|
|----------------3p0-------3-----------|
|-------------------------------5/b\---|

                 Very faint at the end
|-------------------------------------------------------|
|--------------------------------8------8----6----6h8---|
|-------------------5------7/9------9--------7----7----9|
|-------------5h7-------7-------------------------------|
|------5h7----------------------------------------------|
|-------------------------------------------------------|

            
            
Suggest correction
Creating personal tab
Creating personal tab
You can edit any tab online and save it as your Personal.

You can edit, replace or remove any tab part or add personal notes – all changes will be seen only by you.

Personal tabs can be accessed anytime from any device, even offline.
Learn more »
comments
print report bad tab
1 comment total.
0 reply
ethanpegrum 10 Aug 23, 2016 12:08 PM

Can somebody explain the section inbetween and the , why are there 12 seperate lines? Thanks

guest
You may want to rate the tab now too:
select rating
Wanna post a correction for this tab? Suggest correction