Oops, an error
Loading. Please wait.

Thinking Out Loud Chords

version 10
version 10

Whole song

Interactive

Video

1,423 views 129 this week
2 commentsread comments
1 2 3 4 5
x 3
add to favorites
launch autoscroll
font size
0
reset
transpose
0
reset
display chords
guitar tuner
Autoscroll
slow
fast
+/-
esc
set tempo
stop
Help us to improve Ultimate-Guitar.com Take our survey!
×
Author
Difficulty
novice
About this tab version
Forget any other version, this one is correct. Enjoy. Was this info helpful? Yes No
(He hammers on the G string when playing D chord in the first verse)

D                                      G         A
   When your legs don't work like they used to before
D                                    G     A
   And I can't sweep you off of your feet
D                                     G            A
   Will your mouth still remember the taste of my love
D                             G                 A
   Will your eyes still smile from your cheeks

             D                  G A         D  G  A
And darling I will be loving you till we're 70
           D                      G   A       D   
And baby my heart could still fall as hard at 23 
G                     A    
And I'm thinking bout how 


[Pre-Chorus]

Em                         A      D
People fall in love in mysterious ways
Em                      A
Maybe just the touch of hand
     Em                          A           Bm
Well me I fall in love with you every single day 
    Em                      Ax5
And I just wanna tell you I am
          D       
So honey now..


[Chorus]

G  A                        D
   Take me into your loving arms 
G  A                            D        
   Kiss me under the light of a thousand stars 
G  A                              D   
   Place your head on my beating heart 
    G            A 
I'm thinking out loud

          Bm  A    G    D     Em    A  D
And maybe we found love right where we are


[Verse]

                                       G      A
  And when my hair's all but gone and my memory fades  
D                              G     A
  And the crowds don't remember my name
D                     G        A           
  When my hands don't play the strings the same way
D                                   G    A 
  I know you will still love me the same

            D                    G     A            D     G A
Cause honey your soul could never grow old it's evergreen
                D             G     A             D   
And baby your smile's forever in my mind and memory
        G            A
And i'm thinking bout how 


[Pre-Chorus]

Em                        A       D
People fall in love in mysterious ways
Em                         A
And maybe it's all part of plan
       Em                         A      Bm
Well I'll just keep on making the same mistakes 
Em                    Ax5
Hoping that you'll understand
          D    
That baby now..


[Chorus]

G  A                        D
   Take me into your loving arms 
G  A                            D        
   Kiss me under the light of a thousand stars 
G  A                              D   
   Place your head on my beating heart 
    G            A 
I'm thinking out loud

          Bm  A    G    D     Em    A  D
And maybe we found love right where we are


[Instrumental]

D G A x4

e|---------------------------------------------------------------------------|
B|--------------------------8--7---7-7---------------------------------------|
G|------------7-9--7-9-s-11-9--7-h-9-7------7---7-7---7----7-----------------|
D|--------7-9-------------------------------7-h-9-7-h-9----7-----------------|
A|---------------------------------------------------------------------------|
E|---------------------------------------------------------------------------|
                              
e|---------------------------------------------------------------------------|
B|--------------------------10-----------------------------------------------|
G|------------7-9--7-9-s-11----(11-s)9-p-7---9-p-7---------------------------|
D|--------7-9----------------------------------------------------------------|
A|---------------------------------------------------------------------------|
E|---------------------------------------------------------------------------|

e|-------10---10-----10---10----10-----12^14----10~~~---12^14----------------|
B|-------10-h-12-----10-h-12----10-------------------------------------------|
G|---------------------------------------------------------------------------|
D|---------------------------------------------------------------------------|
A|---------------------------------------------------------------------------|
E|---------------------------------------------------------------------------|

e|-------10---10----10---10----10---10---10---------10---------------------------------------|
B|-------10-h-12----10-h-12----10-h-12---10---------12-----10---------------------------10~~~|
G|---------------------------------------------------------9--h-11-p-9-(s)-7-----9-s-11------|
D|-------------------------------------------------------------------------------------------|
A|-------------------------------------------------------------------------------------------|
E|-------------------------------------------------------------------------------------------|

e|------10-10-10------9--9--9-------7-7-7-----5-5-5--------------------------|
B|------12-12-12------10-10-10------8-8-8-----7-7-7--------------------------|
G|---------------------------------------------------------------------------|
D|---------------------------------------------------------------------------|
A|---------------------------------------------------------------------------|
E|---------------------------------------------------------------------------|



[Chorus]

        D 
So baby now
G  A                        D
   Take me into your loving arms 
G  A                            D                    G
   Kiss me under the light of a thousand stars oh darling
   A                             D    
   Place your head on my beating heart 
    G            A 
I'm thinking out loud


[Outro]

           Bm  A    G    D     Em    A  D
That maybe we found love right where we are
     Bm  A    G    D     Em    A  D
Baby we found love right where we are
    Bm  A    G    D     Em    A  D
And we found love right where we are
Suggest correction
Give kudos to tab author, rate the tab!
1 2 3 4 5
comments
print report bad tab
2 comments total.
+1 reply
patrykad1 10 Oct 08, 2016 03:19 PM

didn't like this contribution

0 reply
jakeda 31 Oct 10, 2016 06:37 PM

Ummmmm Why not?

guest
You may want to rate the tab now too:
select rating
Wanna post a correction for this tab? Suggest correction