Oops, an error
Loading. Please wait.
We have an official Thinking Out Loud tab made by UG professional guitarists. Check out the tab »
×
1,530 views 12 this week
no commentswrite comment
1 2 3 4 5
3 more votes to show rating
add to favorites
×
Save as Personal and add changes to this tab that will be seen only by you. Learn more ›
×
You can save this tab as Personal to edit and correct it or add notes. All changes will be seen only by you. Learn more »
launch autoscroll
font size
0
reset
guitar tuner
backing track
0:00
0:00
edit
Autoscroll
slow
fast
+/-
esc
set tempo
stop
Author
Difficulty
-------------------------------------------------------------------------------
                             Thinking Out Loud - Ed Sheeran
-------------------------------------------------------------------------------
Tabbed by: Andrew Sung
E-mail: xturtlepenguinx@gmail.com

Tuning: EADG

Intro: No bass (~00:26)

Verse (And darling I will be loving you...)
G|----------------------------|
D|----------------------------|
A|-----5---9\----------4------|
E|--------------3---5---------|

Pre-Chorus (People fall in love...)
G|----------------------------------------------------------------------|
D|----------------------------------------------------------------------|
A|-------------------------5--5-5/7------------------------------4-5-7--|
E|-----0---0--0-2-3---5---------------------0---0--0-2-3---5--5---------|

(Well me I fall in love with you...)
G|---------------------------------------------------------------------------|
D|------------------------------------------------------------------------7--|
A|----------------------------5--------------------------------------5/7-----|
E|-----0---0--0-2-3---5----7---7------------0---0--0-2-3----5--5--5----------|

Chorus (So honey now...)
G|----------------------------|
D|----------------------------|
A|-----5---9\----------4------|
E|--------------3---5---------|

(Maybe we found love right...)
G|-------------------------------------|
D|-----/9--/7--/5--/4------------------|
A|----------------------------5--------|
E|--------------------0----5-------12/-|

Verse 2 (When my hair's all but gone...)
G|----------------------------|
D|----------------------------|
A|-----5---9\----------4------|
E|--------------3---5---------|

Pre-Chorus (People fall in love...)
G|----------------------------------------------------------------------|
D|----------------------------------------------------------------------|
A|-------------------------5--5-5/7------------------------------4-5-7--|
E|-----0---0--0-2-3---5---------------------0---0--0-2-3---5--5---------|

(I'll just keep on making the same...)
G|---------------------------------------------------------------------------|
D|------------------------------------------------------------------------7--|
A|----------------------------5--------------------------------------5/7-----|
E|-----0---0--0-2-3---5----7---7------------0---0--0-2-3----5--5--5----------|

Chorus (But baby now...)
G|----------------------------|
D|----------------------------|
A|-----5---9\----------4------|
E|--------------3---5---------|

(And maybe we found love right...)
G|-------------------------------------|
D|-----/9--/7--/5--/4------------------|
A|----------------------------5--------|
E|--------------------0----5-------12/-|

Instrumental                               (La la la...)
G|-----------------------------------------------------------|
D|-----------------------------------------------------------|
A|-----5---9\----------4---5----------5---9-------4-5-7-4----|
E|--------------3---5-----------------------3---5------------|

Instrumental                           
G|----------------------------------------------------------------|
D|-----------------------------------------------------------7----|
A|-----5---9\---------------4-5-------5---9-----------------------|
E|--------------3---5-----5-----------------3--3--3--5--5--5---5--|

Chorus (So baby now...)
G|----------------------------|
D|----------------------------|
A|-----5---9\----------4------|
E|--------------3---5---------|

(That baby we found love right...) 
G|-------------------------------------|
D|-----/9--/7--/5--/4------------------|
A|----------------------------5--------|
E|--------------------0----5-----------|


| /  slide up
| \  slide down
| h  hammer-on
| p  pull-off
| ~  vibrato
| +  harmonic
| x  Mute note
===============================================================================

            
            
Suggest correction
Creating personal tab
Creating personal tab
You can edit any tab online and save it as your Personal.

You can edit, replace or remove any tab part or add personal notes – all changes will be seen only by you.

Personal tabs can be accessed anytime from any device, even offline.
Learn more »
Give kudos to tab author, rate the tab!
1 2 3 4 5
comments
print report bad tab
guest
You may want to rate the tab now too:
select rating
Wanna post a correction for this tab? Suggest correction