Oops, an error
Loading. Please wait.

Touch And Go tab

15,658 views 114 this week
10 commentsread comments
1 2 3 4 5
x 27
add to favorites
×
Save as Personal and add changes to this tab that will be seen only by you. Learn more ›
×
You can save this tab as Personal to edit and correct it or add notes. All changes will be seen only by you. Learn more »
launch autoscroll
font size
0
reset
how to read this tab
guitar tuner
edit
Autoscroll
slow
fast
+/-
esc
set tempo
stop
This song has a difficult rhythm to grasp at first, like some of Ed Sheeran's other songs, but once you 
get it, it is relatively easy.
This song is the 'Wembley Edition' of 'X'
https://www.youtube.com/watch?v=R2cR3zy38DU

Tabbed by: red_devil777
Tuning: Standard, capo 3rd
-------------------------------------------------------------------------------
                             Touch and Go - Ed Sheeran
-------------------------------------------------------------------------------


[Intro] (x2)

       Em                C      G  D  Em                C      G  D
e|---------------------------------2------------------------------2--------------------|
B|-----------------------0h1-1--0--3--------------------0h1-1--0--3--------------------|
G|-----2h4p2p0-----2p0---0---0--0--2--2h4p2p0-----2p0---0---0--0--2--------------------|
D|-------------2p0-------2---2--0--0----------2p0-------2---2--0--0--------------------|
A|-----------------------3---3--------------------------3---3--------------------------|
E|------------------------------3------------------------------3-----------------------|


[Verse] (x2)

       G  Bm   C            D  Em   C
e|--------------------------2----------------------------------------------------------|
B|-----0--3----1---1-1---1--3--0----1---1-1---1----------------------------------------|
G|-----0--4----0---0-0---0--2--0----0---0-0---0----------------------------------------|
D|-----0--4----0h2-2-0h2-2--0--2----0h2-2-0h2-2----------------------------------------|
A|--------2----3---3-3---3----------3---3-3---3----------------------------------------|
E|-----3-----------------------0-------------------------------------------------------|


[Pre-chorus]

       Bm Em C         D       Bm C  Bm Em   Bm Em C         C     G D
e|---------------------2-0-2-3---------------------------------------2-2-2-2-2-2-2-2---|
B|-----3--0--1-1-1-1---3-3-3-3-3--5--3--0----3--0--1-1-1-1---1-1-1-0-3-3-3-3-3-3-3-3---|
G|-----4--0--0-0-0-0---2-2-2-2-4--5--4--0----4--0--0-0-0-0---0-0-0-0-2-2-2-2-2-2-2-2---|
D|-----4--2--0-2-0-2---0-0-0-0-4--5--4--2----4--2--0-2-0-2---3-2-0-0-0-0-0-0-0-0-0-0---|
A|-----2-----3-3-3-3-----------2--3--2-------2-----3-3-3-3---3-3-3---------------------|
E|--------0-----------------------------0-------0------------------3-------------------|


[Chorus]

           Em  C  G
If you say go, 
D            Em            C  G  
I would stop everything oh
D                       Em       C  G  
My heart would play the role now
D                 Em              C 
And act like it's never been broke
G            D         Em       C
 Though my soul, oh oh oh
G       D                Em     C
 Lately I really need to know
G              D               Em        C    
 How long, how long, can we be touch and go
G      D           Em      C
 Oh my soul, oh oh oh
G                           D
 How long, how long, can we be touch and go


[Middle 8]

       Em                C      G  D  Em                C      G  D
e|---------------------------------2------------------------------2--------------------|
B|-----------------------0h1-1--0--3--------------------0h1-1--0--3--------------------|
G|-----2h4p2p0-----2p0---0---0--0--2--2h4p2p0-----2p0---0---0--0--2--------------------|
D|-------------2p0-------2---2--0--0----------2p0-------2---2--0--0--------------------|
A|-----------------------3---3--------------------------3---3--------------------------|
E|------------------------------3------------------------------3-----------------------|


[Verse](x2)

       G  Bm   C            D  Em   C
e|--------------------------2----------------------------------------------------------|
B|-----0--3----1---1-1---1--3--0----1---1-1---1----------------------------------------|
G|-----0--4----0---0-0---0--2--0----0---0-0---0----------------------------------------|
D|-----0--4----0h2-2-0h2-2--0--2----0h2-2-0h2-2----------------------------------------|
A|--------2----3---3-3---3----------3---3-3---3----------------------------------------|
E|-----3-----------------------0-------------------------------------------------------|


[Pre-chorus]

       Bm Em C         D       Bm C  Bm Em   Bm Em C         C     G D
e|---------------------2-0-2-3---------------------------------------2-2-2-2-2-2-2-2---|
B|-----3--0--1-1-1-1---3-3-3-3-3--5--3--0----3--0--1-1-1-1---1-1-1-0-3-3-3-3-3-3-3-3---|
G|-----4--0--0-0-0-0---2-2-2-2-4--5--4--0----4--0--0-0-0-0---0-0-0-0-2-2-2-2-2-2-2-2---|
D|-----4--2--0-2-0-2---0-0-0-0-4--5--4--2----4--2--0-2-0-2---3-2-0-0-0-0-0-0-0-0-0-0---|
A|-----2-----3-3-3-3-----------2--3--2-------2-----3-3-3-3---3-3-3---------------------|
E|--------0-----------------------------0-------0------------------3-------------------|


[Chorus]

           Em  C  G
If you say go, 
D            Em            C  G  
I would stop everything oh
D                       Em       C  G  
My heart would play the role now
D                 Em              C 
And act like it's never been broke
G            D         Em       C
 Though my soul, oh oh oh
G       D                Em     C
 Lately I really need to know
G              D               Em        C    
 How long, how long, can we be touch and go
G      D           Em      C
 Oh my soul, oh oh oh
G                           D
 How long, how long, can we be


[Bridge]

       D/F#  G Cadd9 G     D/F#  G Cadd9 Em    D/F#  G Cadd9
e|-------------------------------------------------------------------------------------|
B|-----3-3-3-3-3-3---3-3---3-3-3-3-3-3---0-0---3-3-3-3-3-3-----------------------------|
G|-----2-0-2-0-0-0---0-0---2-0-2-0-0-0---0-0---2-0-2-0-0-0-----------------------------|
D|-----0-0-0-0-2-2---0-0---0-0-0-0-2-2---2-2---0-0-0-0-2-2-----------------------------|
A|-------------3-3-----------------3-3-----------------3-3-----------------------------|
E|-----2-2-3-3-------3-3---2-2-2-3-------0-0---2-2-3-3---------------------------------|


[Chorus]

           Em  C  G
If you say go, 
D            Em            C  G  
I would stop everything oh
D                       Em       C  G  
My heart would play the role now
D                 Em              C 
And act like it's never been broke
G            D         Em       C
 Though my soul, oh oh oh
G       D                Em     C
 Lately I really need to know
G              D               Em        C    
 How long, how long, can we be touch and go
G      D           Em      C
 Oh my soul, oh oh oh
G                           D
 How long, how long, can we be touch and go


[Outro]

       Em                C      G  D  Em                C      G  D   Em
e|---------------------------------2------------------------------2--------------------|
B|-----------------------0h1-1--0--3--------------------0h1-1--0--3--------------------|
G|-----2h4p2p0-----2p0---0---0--0--2--2h4p2p0-----2p0---0---0--0--2---2h4p2p0-----2p0--|
D|-------------2p0-------2---2--0--0----------2p0-------2---2--0--0-----------2p0------|
A|-----------------------3---3--------------------------3---3--------------------------|
E|------------------------------3------------------------------3-----------------------|

************************************

| /   slide up
| \   slide down
| h   hammer-on
| p   pull-off
| ~   vibrato
| +   harmonic
| x   Mute note
| b   Bend
| pb  Pre-bend
| br  Bend release
| pbr Pre-bend release
| brb Bend release bend

************************************
Full Lyrics:

[Intro]

Oh oh oh
Oh oh oh
Oh oh oh
Oh oh oh


[Verse 1]

Waking up, midnight November
And just still in my bed
It's kinda rough, cause since I met ya
There's things we've never said


[Pre-Chorus]

So if I go for a little while longer
When I'm home we can talk about the big falls of the road


[Chorus]

If you say go, I would stop everything oh
My heart would play the role now
And act like it's never been broke
Though my soul, oh oh oh
Lately I really need to know
How long, how long, can we be touch and go
Oh my soul, oh oh oh
How long, how long, can we be touch and go


[Verse 2]

It's not enough, to say I want ya
Cause I'll say anything
I'm holding out, to feel without a doubt
I had have just been questioning it


[Pre-Chorus]

So if I go for a little while longer
When I'm home we can talk about the big falls of the road


[Chorus]

If you say go, I would stop everything oh
My heart would play the role now
And act like it's never been broke
Though my soul, oh oh oh
Lately I really need to know
How long, how long, can we be touch and go
Oh my soul, oh oh oh
How long, how long, can we be touch and go


[Bridge]

All of my bones, they scream I'm right
If you're taking me home to stay the night
Darling my soul would heal


[Outro]

If you say go, I would stop everything oh
My heart would play the wrong
And act like it's never been broke, though my soul
Lately I really need to know
How long, how long, can we be touch and go
Oh my soul, how long
How long, how long, can we be touch and go
How long, how long, can we be touch and go
How long, how long, can we be touch and go

Thank you for using my tab hope it was helpful for you :)

            
            
Suggest correction
Creating personal tab
Creating personal tab
You can edit any tab online and save it as your Personal.

You can edit, replace or remove any tab part or add personal notes – all changes will be seen only by you.

Personal tabs can be accessed anytime from any device, even offline.
Learn more »
comments
print report bad tab
10 comments total. Showing first comments.
+2 reply
ariel5rols 28 Dec 03, 2015 06:44 AM

thanks for the effort man really helpful:)

+2 reply
xChocoThundax 124 Dec 04, 2015 01:58 AM

Okay, I don't usually comment on these, but this tab has like no ratings or comments and it is absolutely perfect! (Except the chorus has tab which isn't written here)

+1 reply
Squishidinks 135 Apr 04, 2016 08:35 PM

Thanks for this tab, it is amazing! It's so hard to find a correct tab for this song and this is perfect. I love it how you've even included every little detail at the start of the song! Well done!

guest
You may want to rate the tab now too:
select rating
Wanna post a correction for this tab? Suggest correction