Oops, an error
Loading. Please wait.

What Do I Know bass

version 1
version 1

Whole song

  • Just follow the guitar's rhythm, you can hear the ... Show more

Interactive

313 views 24 this week
no commentswrite comment
1 2 3 4 5
3 more votes to show rating
add to favorites
×
Save as Personal and add changes to this tab that will be seen only by you. Learn more ›
×
You can save this tab as Personal to edit and correct it or add notes. All changes will be seen only by you. Learn more »
launch autoscroll
font size
0
reset
guitar tuner
edit
Autoscroll
slow
fast
+/-
esc
set tempo
stop
About this tab version
Just follow the guitar's rhythm, you can hear the song here: https://www.youtube.com/watch?v=6B9J3lEyffA. May not be 100% accurate but it works for accompaniment. I had to play along for a cover and saw that there were no bass tabs so I based this off of the guitar tabs. Was this info helpful? Yes No
[Verse]
G|------------------------------|
D|------------------------------|
A|---7---6-4--------------------|
E|---------------7-5---4-5---7--|x2

[Pre Chorus]
G|------------------------------|
D|------------------------------|
A|---0-0----4----2-2--7-7-----2-|
E|------------------------------|x4

[Chorus]
G|------------------------------|
D|------------------------------|
A|---7---6-4--------------------|
E|---------------7-5---4-5---7--|x6

[Verse/Chorus]
G|------------------------------|
D|------------------------------|
A|---7---6-4--------------------|
E|---------------7-5---4-5---7--|x2

[Pre Chorus]
G|------------------------------|
D|------------------------------|
A|---0-0----4----2-2--7-7-----2-|
E|------------------------------|x4

[Chorus]
G|------------------------------|
D|------------------------------|
A|---7---6-4--------------------|
E|---------------7-5---4-5---7--|x6

[Bridge]
G|------------------------------|
D|------------------------------|
A|---0-0----4----2-2--7-7-----2-|
E|------------------------------|x3

[Chorus]
G|------------------------------|
D|------------------------------|
A|---7---6-4--------------------|
E|---------------7-5---4-5---7--|x6

[Notes]
The last 2 in the PreChorus/Bridge is on the 'and' right before the next measure,
it's the little extra note that the guitar plays.
Omit that last 2 on the fourth repeat of the PreChorus.
Suggest correction
Creating personal tab
Creating personal tab
You can edit any tab online and save it as your Personal.

You can edit, replace or remove any tab part or add personal notes – all changes will be seen only by you.

Personal tabs can be accessed anytime from any device, even offline.
Learn more »
Give kudos to tab author, rate the tab!
1 2 3 4 5
comments
print report bad tab
guest
You may want to rate the tab now too:
select rating
Wanna post a correction for this tab? Suggest correction