Oops, an error
Loading. Please wait.

What Do I Know tab

version 1
version 1

Whole song

  • Acoustic fingerstyle (for singing over), no capo.
  • This version sounds almost identical to Ed Sheeran... Show more
  • Easier to play because no capo is needed.
  • Full tab of song not just parts and no capo needed.
  • Exactly How Ed Plays it live and contains timing/r... Show more
  • Great song. Nice lyrics. And not that hard to play.
  • Very simple tab, just the same two riffs repeated throughout.

Interactive

Video

40,912 views 687 this week
7 commentsread comments
1 2 3 4 5
x 48
add to favorites
×
Save as Personal and add changes to this tab that will be seen only by you. Learn more ›
×
You can save this tab as Personal to edit and correct it or add notes. All changes will be seen only by you. Learn more »
launch autoscroll
font size
0
reset
how to read this tab
guitar tuner
edit
Autoscroll
slow
fast
+/-
esc
set tempo
stop
[Verse 1]
e|--------|--------|--------|--------|-------|
B|--4h5---|--3--1--|--------|--------|-------|
G|--------|--------|--4--2--|--0--2--|--4----|
D|--------|--------|--------|--------|-------|   (x2)
A|--3-----|--2--0--|--------|--------|-------|
E|--------|--------|--3--1--|--0--1--|--3----|

[Bridge 1]
e|--------|--------|--------|
B|--------|--1-----|--5--5--|
G|--2--2--|-----4-4|--------|
D|--------|--------|--------|   
A|--------|--0-----|--3-(3)-|
E|--1--1--|-----3-3|--------|

e|--------|--------|--------|
B|--------|--1-----|--5--5--|
G|0-2--2--|-----4-4|--------|
D|--------|--------|--------|   (x2)
A|--------|--0-----|--3-(3)-|
E|0-1--1--|-----3-3|--------|

e|--------|--------|--------|
B|--------|--------|--------|
G|0-2--2--|--2--4-4|-4-4-4--|
D|--------|--------|--------|   
A|--------|--------|--------|
E|0-1--1--|--1--3--|-----3--|

[Chorus 1]
e|--------|--------|--------|--------|-------|
B|--4h5---|--3--1--|--------|--------|-------|
G|--------|--------|--4--2--|--0--2--|--4----|
D|--------|--------|--------|--------|-------|   (x6)
A|--3-----|--2--0--|--------|--------|-------|
E|--------|--------|--3--1--|--0--1--|--3----|

[Verse 2]
e|--------|--------|--------|--------|-------|
B|--4h5---|--3--1--|--------|--------|-------|
G|--------|--------|--4--2--|--0--2--|--4----|
D|--------|--------|--------|--------|-------|   (x2)
A|--3-----|--2--0--|--------|--------|-------|
E|--------|--------|--3--1--|--0--1--|--3----|

[Bridge 2]
e|--------|--------|--------|
B|--------|--1-----|--5--5--|
G|--2--2--|-----4-4|--------|
D|--------|--------|--------|   
A|--------|--0-----|--3-(3)-|
E|--1--1--|-----3-3|--------|

e|--------|--------|--------|
B|--------|--1-----|--5--5--|
G|0-2--2--|-----4-4|--------|
D|--------|--------|--------|   (x2)
A|--------|--0-----|--3-(3)-|
E|0-1--1--|-----3-3|--------|

e|--------|--------|--------|
B|--------|--------|--------|
G|0-2--2--|--2--4-4|-4-4-4--|
D|--------|--------|--------|   
A|--------|--------|--------|
E|0-1--1--|--1--3--|-----3--|

[Chorus 2]
e|--------|--------|--------|--------|-------|
B|--4h5---|--3--1--|--------|--------|-------|
G|--------|--------|--4--2--|--0--2--|--4----|
D|--------|--------|--------|--------|-------|   (x6)
A|--3-----|--2--0--|--------|--------|-------|
E|--------|--------|--3--1--|--0--1--|--3----|

[Bridge 3]
e|--------|--------|--------|
B|--------|--1-----|--5--5--|
G|--2--2--|-----4-4|--------|
D|--------|--------|--------|   
A|--------|--0-----|--3-(3)-|
E|--1--1--|-----3-3|--------|

e|--------|--------|--------|
B|--------|--1-----|--5--5--|
G|0-2--2--|-----4-4|--------|
D|--------|--------|--------|   (x2)
A|--------|--0-----|--3-(3)-|
E|0-1--1--|-----3-3|--------|

e|--------|--------|--------|
B|--------|--------|--------|
G|0-2-----|--------|--------|
D|--------|--------|--------|   
A|--------|--------|--------|
E|0-1-----|--------|--------|

[Chorus 3]
e|--------|--------|--------|--------|-------|
B|--4h5---|--3--1--|--------|--------|-------|
G|--------|--------|--4--2--|--0--2--|--4----|
D|--------|--------|--------|--------|-------|  (x6)
A|--3-----|--2--0--|--------|--------|-------|
E|--------|--------|--3--1--|--0--1--|--3----|


************************************

| h    Hammer-on
| (n)  Ghost note

************************************

            
            
Suggest correction
Creating personal tab
Creating personal tab
You can edit any tab online and save it as your Personal.

You can edit, replace or remove any tab part or add personal notes – all changes will be seen only by you.

Personal tabs can be accessed anytime from any device, even offline.
Learn more »
comments
print report bad tab
7 comments total. Showing first comments.
+8 reply
lydomokun1126 10 Apr 11, 2017 08:44 PM

You actually do need the capo

+1 reply
emonj98 10 May 13, 2017 01:54 PM

Ed plays it with the capo. Listen to the song. It's in G

+1 reply
renelefrenchyy 10 May 14, 2017 05:15 PM

Play it in the key you want.. who cares lol

guest
You may want to rate the tab now too:
select rating
Wanna post a correction for this tab? Suggest correction