Oops, an error
Loading. Please wait.

What Do I Know tab

version 2
version 2

Whole song

  • Acoustic fingerstyle (for singing over), no capo.
  • This version sounds almost identical to Ed Sheeran... Show more
  • Easier to play because no capo is needed.
  • Full tab of song not just parts and no capo needed.
  • Exactly How Ed Plays it live and contains timing/r... Show more
  • Great song. Nice lyrics. And not that hard to play.
  • Very simple tab, just the same two riffs repeated throughout.

Interactive

Video

6,823 views 51 this week
1 commentread comment
1 2 3 4 5
x 15
add to favorites
×
Save as Personal and add changes to this tab that will be seen only by you. Learn more ›
×
You can save this tab as Personal to edit and correct it or add notes. All changes will be seen only by you. Learn more »
launch autoscroll
font size
0
reset
how to read this tab
guitar tuner
edit
Autoscroll
slow
fast
+/-
esc
set tempo
stop
Ed Sheeran - What Do I Know

[Verse]
e|--------x---------x--------x--------x-----|
B|--------x---------x--------x--------x-----|
G|-11h13--x--11--9--x--8--6--x--4--6--x--8--|x2
D|--------x---------x--------x--------x-----|
A|--------x---------x--------x--------x-----|
E|-0------x--11--9--x--7--5--x--4--5--x--7--|


[Pre-Chorus]
e|-------|--------|---------|
B|-------|--------|---------|
G|-6-6-6-|-9--8-8-|-13-13-6-|x3
D|-------|--------|---------|
A|-------|--------|---------|
E|-5--5--|-9--7---|-12----4-|

e|-------|------------|
B|-------|------------|
G|-6-6-6-|-8--8-8-8-8-|
D|-------|------------|
A|-------|------------|
E|-5--5--|-7--7-7-7-7-|


[Chorus]
e|--------x---------x--------x--------x-----|
B|--------x---------x--------x--------x-----|
G|-12h13--x--11--9--x--8--6--x--4--6--x--8--|x6
D|--------x---------x--------x--------x-----|
A|--------x---------x--------x--------x-----|
E|-12-----x--11--9--x--7--5--x--4--5--x--7--|


[Verse 2]
e|--------x---------x--------x--------x-----|
B|--------x---------x--------x--------x-----|
G|-12h13--x--11--9--x--8--6--x--4--6--x--8--|x2
D|--------x---------x--------x--------x-----|
A|--------x---------x--------x--------x-----|
E|-12-----x--11--9--x--7--5--x--4--5--x--7--|


[Pre-Chorus 2]
e|-------|--------|---------|
B|-------|--------|---------|
G|-6-6-6-|-9--8-8-|-13-13-6-|x3
D|-------|--------|---------|
A|-------|--------|---------|
E|-5--5--|-9--7---|-12----4-|

e|-------|------------|
B|-------|------------|
G|-6-6-6-|-8--8-8-8-8-|
D|-------|------------|
A|-------|------------|
E|-5--5--|-7--7-7-7-7-|


[Chorus 2]
e|--------x---------x--------x--------x-----|
B|--------x---------x--------x--------x-----|
G|-12h13--x--11--9--x--8--6--x--4--6--x--8--|x6
D|--------x---------x--------x--------x-----|
A|--------x---------x--------x--------x-----|
E|-12-----x--11--9--x--7--5--x--4--5--x--7--|


[Pre-Chorus 3]
e|-------|--------|---------|
B|-------|--------|---------|
G|-6-6-6-|-9--8-8-|-13-13-6-|x3
D|-------|--------|---------|
A|-------|--------|---------|
E|-5--5--|-9--7---|-12----4-|


[Chorus 3]
e|--------x---------x--------x--------x-----|
B|--------x---------x--------x--------x-----|
G|-12h13--x--11--9--x--8--6--x--4--6--x--8--|x6
D|--------x---------x--------x--------x-----|
A|--------x---------x--------x--------x-----|
E|-12-----x--11--9--x--7--5--x--4--5--x--7--|


************************************

| h    Hammer-on

************************************

            
            
Suggest correction
Creating personal tab
Creating personal tab
You can edit any tab online and save it as your Personal.

You can edit, replace or remove any tab part or add personal notes – all changes will be seen only by you.

Personal tabs can be accessed anytime from any device, even offline.
Learn more »
comments
print report bad tab
1 comment total.
0 reply
Tykinator 10 Sep 11, 2017 10:49 PM

Awesome!

guest
You may want to rate the tab now too:
select rating
Wanna post a correction for this tab? Suggest correction