Oops, an error
Loading. Please wait.

What Do I Know tab

version 4
version 4

Whole song

  • Acoustic fingerstyle (for singing over), no capo.
  • This version sounds almost identical to Ed Sheeran... Show more
  • Easier to play because no capo is needed.
  • Full tab of song not just parts and no capo needed.
  • Exactly How Ed Plays it live and contains timing/r... Show more
  • Great song. Nice lyrics. And not that hard to play.
  • Very simple tab, just the same two riffs repeated throughout.

Interactive

Video

1,954 views 42 this week
no commentswrite comment
1 2 3 4 5
2 more votes to show rating
add to favorites
×
Save as Personal and add changes to this tab that will be seen only by you. Learn more ›
×
You can save this tab as Personal to edit and correct it or add notes. All changes will be seen only by you. Learn more »
launch autoscroll
font size
0
reset
how to read this tab
guitar tuner
edit
Autoscroll
slow
fast
+/-
esc
set tempo
stop
Author
Difficulty
About this tab version
This version sounds almost identical to Ed Sheeran's, since it's basically the same notes. I adjusted the chords so you can play it lower down on the neck, making it easier for people to play. Was this info helpful? Yes No
What Do I Know?
by Ed Sheeran

No capo needed, I believe this is the easiest way to play it, Ed plays really high up on the neck and that may
be too difficult for some. He adds some slaps in between but I'm sure you can figure those out by just 
listening to the song. yX means play the tab below y times. E.g. 2X means play the tab below two times. Enjoy!

[Verse] x2
  E         D#m  C#m           B    A           G#m   A        B           
e|--------------------------------------------------------------------|
B|9----------7----5---------------------------------------------------|
G|9----------8----6------------8----6------------4----6--------8------|
D|-----------------------------9----7------------6----7--------9------|
A|7----------6----4---------------------------------------------------|
E|-----------------------------7----5------------4----5--------7------|

[Pre-Chorus] x3
  A        A           C#m       B        B        E        E       G#m       
e|------------------------------------------------------------------------|
B|----------------------5--------------------------9--------9-------------|
G|6--------6------------6--------8--------8--------9--------9--------4----|
D|7--------7---------------------9--------9--------------------------6----|
A|----------------------4--------------------------7--------7-------------|
E|5--------5---------------------7--------7--------------------------4----|
  
x1
  A        A            A        B        B    B    B    B 
e|----------------------------------------------------------------|
B|----------------------------------------------------------------|
G|6--------6------------6--------8--------8----8----8----8--------|
D|7--------7------------7--------9--------9----9----9----9--------|
A|----------------------------------------------------------------|
E|5--------5------------5--------7--------7----7----7----7--------|

[Chorus] x6
  E         D#m  C#m           B    A           G#m   A        B          
e|--------------------------------------------------------------------|
B|9----------7----5---------------------------------------------------|
G|9----------8----6------------8----6------------4----6--------8------|
D|-----------------------------9----7------------6----7--------9------|
A|7----------6----4---------------------------------------------------|
E|-----------------------------7----5------------4----5--------7------|

            
            
Suggest correction
Creating personal tab
Creating personal tab
You can edit any tab online and save it as your Personal.

You can edit, replace or remove any tab part or add personal notes – all changes will be seen only by you.

Personal tabs can be accessed anytime from any device, even offline.
Learn more »
Give kudos to tab author, rate the tab!
1 2 3 4 5
comments
print report bad tab
guest
You may want to rate the tab now too:
select rating
Wanna post a correction for this tab? Suggest correction