Oops, an error
Loading. Please wait.

What Do I Know tab

version 7
version 7

Whole song

  • Acoustic fingerstyle (for singing over), no capo.
  • This version sounds almost identical to Ed Sheeran... Show more
  • Easier to play because no capo is needed.
  • Full tab of song not just parts and no capo needed.
  • Exactly How Ed Plays it live and contains timing/r... Show more
  • Great song. Nice lyrics. And not that hard to play.
  • Very simple tab, just the same two riffs repeated throughout.

Interactive

Video

898 views 6 this week
1 commentread comment
1 2 3 4 5
x 3
add to favorites
×
Save as Personal and add changes to this tab that will be seen only by you. Learn more ›
×
You can save this tab as Personal to edit and correct it or add notes. All changes will be seen only by you. Learn more »
launch autoscroll
font size
0
reset
how to read this tab
guitar tuner
edit
Autoscroll
slow
fast
+/-
esc
set tempo
stop
Author
Difficulty
About this tab version
Full tab of song not just parts and no capo needed. Was this info helpful? Yes No
Standard tuning
No capo

[Verse]
e|---------------------------------------------------------------------------|
B|---7h9----7---5-----4----2-------------------------------------------------|
G|-------------------------------4---6------8--------------------------------| (x2)
D|---------------------------------------------------------------------------|
A|----------6---4-----2----0-------------------------------------------------|
E|---0---------------------------4---5------7--------------------------------|

[Pre-Chorus]
e|---------------------------4--4--------------------------------------------|
B|--2---2-----5---4----4-----------------------------------------------------|
G|---------------------------------------------------------------------------|
D|---------------------------2--2--------------------------------------------|
A|--0---0-----4----2---2-----------------------------------------------------|
E|---------------------------------------------------------------------------|

e|---------------------------4--4--------------------------------------------|
B|--0h2--2-----5----4---4----------------------------------------------------|
G|---------------------------------------------------------------------------| (x2)
D|---------------------------2--2--------------------------------------------|
A|---0---0-----4----2---2----------------------------------------------------|
E|---------------------------------------------------------------------------|

e|---------------------------------------------------------------------------|
B|--0h2--2----2---------4-4-4-4-4--------------------------------------------|
G|---------------------------------------------------------------------------|
D|---------------------------------------------------------------------------|
A|---0---0----0---------2-2-2-2-2--------------------------------------------|
E|---------------------------------------------------------------------------|

[Chorus]
e|---------------------------------------------------------------------------|
B|---7h9----7---5-----4----2-------------------------------------------------|
G|-------------------------------4---6------8--------------------------------| (x6)
D|---------------------------------------------------------------------------|
A|----------6---4-----2----0-------------------------------------------------|
E|---0---------------------------4---5------7--------------------------------|

[Verse 2]
e|---------------------------------------------------------------------------|
B|---7h9----7---5-----4----2-------------------------------------------------|
G|-------------------------------4---6------8--------------------------------| (x2)
D|---------------------------------------------------------------------------|
A|----------6---4-----2----0-------------------------------------------------|
E|---0---------------------------4---5------7--------------------------------|

[Pre-chorus]
e|---------------------------4--4--------------------------------------------|
B|--2---2-----5----4---4-----------------------------------------------------|
G|---------------------------------------------------------------------------|
D|---------------------------2--2--------------------------------------------|
A|--0---0-----4----2---2-----------------------------------------------------|
E|---------------------------------------------------------------------------|

e|---------------------------4--4--------------------------------------------|
B|--0h2--2-----5----4---4----------------------------------------------------|
G|---------------------------------------------------------------------------| (x2)
D|---------------------------2--2--------------------------------------------|
A|---0---0-----4----2---2----------------------------------------------------|
E|---------------------------------------------------------------------------|

e|---------------------------------------------------------------------------|
B|--0h2--2----2---------4-4-4-4-4--------------------------------------------|
G|---------------------------------------------------------------------------|
D|---------------------------------------------------------------------------|
A|---0---0----0---------2-2-2-2-2--------------------------------------------|
E|---------------------------------------------------------------------------|

[Chorus]
e|---------------------------------------------------------------------------|
B|---7h9----7---5-----4----2-------------------------------------------------|
G|-------------------------------4---6------8--------------------------------| (x6)
D|---------------------------------------------------------------------------|
A|----------6---4-----2----0-------------------------------------------------|
E|---0---------------------------4---5------7--------------------------------|

[Pre-chorus]
e|---------------------------4--4--------------------------------------------|
B|--2---2-----5----4---4-----------------------------------------------------|
G|---------------------------------------------------------------------------|
D|---------------------------2--2--------------------------------------------|
A|--0---0-----4----2---2-----------------------------------------------------|
E|---------------------------------------------------------------------------|

e|---------------------------4--4--------------------------------------------|
B|--0h2--2-----5----4---4----------------------------------------------------|
G|---------------------------------------------------------------------------| (x2)
D|---------------------------2--2--------------------------------------------|
A|---0---0-----4----2---2----------------------------------------------------|
E|---------------------------------------------------------------------------|

e|---------------------------------------------------------------------------|
B|--0h2--2----2---------4-4-4-4-4--------------------------------------------|
G|---------------------------------------------------------------------------|
D|---------------------------------------------------------------------------|
A|---0---0----0---------2-2-2-2-2--------------------------------------------|
E|---------------------------------------------------------------------------|

[Chorus]
e|---------------------------------------------------------------------------|
B|---7h9----7---5-----4----2-------------------------------------------------|
G|-------------------------------4---6------8--------------------------------| (x6)
D|---------------------------------------------------------------------------|
A|----------6---4-----2----0-------------------------------------------------|
E|---0---------------------------4---5------7--------------------------------|


************************************

| h  Hammer-on

************************************

            
            
Suggest correction
Creating personal tab
Creating personal tab
You can edit any tab online and save it as your Personal.

You can edit, replace or remove any tab part or add personal notes – all changes will be seen only by you.

Personal tabs can be accessed anytime from any device, even offline.
Learn more »
Give kudos to tab author, rate the tab!
1 2 3 4 5
comments
print report bad tab
1 comment total.
0 reply
alexcoops101 10 May 15, 2017 02:37 PM

Great tab, keep up the good work, maybe choose a different artist like the Beatles next time

guest
You may want to rate the tab now too:
select rating
Wanna post a correction for this tab? Suggest correction