Oops, an error
Loading. Please wait.

What Do I Know tab

version 8
version 8

Whole song

  • Acoustic fingerstyle (for singing over), no capo.
  • This version sounds almost identical to Ed Sheeran... Show more
  • Easier to play because no capo is needed.
  • Full tab of song not just parts and no capo needed.
  • Exactly How Ed Plays it live and contains timing/r... Show more
  • Great song. Nice lyrics. And not that hard to play.
  • Very simple tab, just the same two riffs repeated throughout.

Interactive

Video

739 views 27 this week
no commentswrite comment
1 2 3 4 5
x 8
add to favorites
×
Save as Personal and add changes to this tab that will be seen only by you. Learn more ›
×
You can save this tab as Personal to edit and correct it or add notes. All changes will be seen only by you. Learn more »
launch autoscroll
font size
0
reset
how to read this tab
guitar tuner
edit
Autoscroll
slow
fast
+/-
esc
set tempo
stop
About this tab version
Exactly How Ed Plays it live and contains timing/rhythm in the most easy to follow layout available. Was this info helpful? Yes No
----------------------------------------------------------------------
  VIDEO LESSON - https://www.youtube.com/watch?v=HjYu-i6uRdI
----------------------------------------------------------------------

[Verse/Chorus/Post Chorus]
e|-------x-----------x----|-------x-----------x-----| 
B|-------x-----------x----|-------x-----------x-----| 
G|-11h13-x--------11-x--9-|-------x--------8--x--6--| 
D|-------x-----------x----|-------x-----------x-----| 
A|-------x-----------x----|-------x-----------x-----| 
E|-0-----x--------11-x--9-|-------x--------7--x--5--| 
   1  +  2  +  3  +  4  +   1  +  2  +  3  +  4  +  
 
e|-------x-----------x----|-------x-----------x-----| 
B|-------x-----------x----|-------x-----------x-----| 
G|-------x--------4--x--6-|-------x--8--------x-----| 
D|-------x-----------x----|-------x-----------x-----| 
A|-------x-----------x----|-------x-----------x-----| 
E|-------x--------4--x--5-|-------x--7--------x-----| 
   1  +  2  +  3  +  4  +   1  +  2  +  3  +  4  +  
 
 
[Pre-Chorus] 
e|-------------------x----|-------x-----------x-----| 
B|-------------------x----|-------x-----------x-----| 
G|-6-----6-----6--9--x--8-|----8--x--13----13-x--4--| 
D|-------------------x----|-------x-----------x-----| 
A|-------------------x----|-------x-----------x-----|  x3 
E|-5-----5-----5--9--x--7-|----7--x--0-----0--x--4--| 
   1  +  2  +  3  +  4  +   1  +  2  +  3  +  4  +  
 
e|-------------------x----|-------------------------| 
B|-------------------x----|-------------------------| 
G|-6-----6-----6--6--x--8-|----8--8--8--8-----------| 
D|-------------------x----|-------------------------| 
A|-------------------x----|-------------------------| 
E|-5-----5-----5--5--x--7-|----7--7--7--7-----------| 
   1  +  2  +  3  +  4  +   1  +  2  +  3  +  4  +  
Suggest correction
Creating personal tab
Creating personal tab
You can edit any tab online and save it as your Personal.

You can edit, replace or remove any tab part or add personal notes – all changes will be seen only by you.

Personal tabs can be accessed anytime from any device, even offline.
Learn more »
comments
print report bad tab
guest
You may want to rate the tab now too:
select rating
Wanna post a correction for this tab? Suggest correction