Oops, an error
Loading. Please wait.

What Do I Know Live tab

version 9
version 9

Whole song

  • Acoustic fingerstyle (for singing over), no capo.
  • This version sounds almost identical to Ed Sheeran... Show more
  • Easier to play because no capo is needed.
  • Full tab of song not just parts and no capo needed.
  • Exactly How Ed Plays it live and contains timing/r... Show more
  • Great song. Nice lyrics. And not that hard to play.
  • Very simple tab, just the same two riffs repeated throughout.

Interactive

Video

154 views 1 this week
no commentswrite comment
1 2 3 4 5
3 more votes to show rating
add to favorites
×
Save as Personal and add changes to this tab that will be seen only by you. Learn more ›
×
You can save this tab as Personal to edit and correct it or add notes. All changes will be seen only by you. Learn more »
launch autoscroll
font size
0
reset
how to read this tab
guitar tuner
edit
Autoscroll
slow
fast
+/-
esc
set tempo
stop
About this tab version
Great song. Nice lyrics. And not that hard to play. Was this info helpful? Yes No
Tuning: Standard
No Capo Needed
Difficulty: Novice

[Verse 1]

e|-------x-----------x-----------x-------------x------x--|
B|--7/9--x-----------x-----------x-------------x------x--|
G|-------x---11---9--x----8---6--x-----4----6--x---8--x--| x2
D|-------x-----------x-----------x-------------x------x--| 
A|--7----x-----------x-----------x-------------x------x--|
E|-------x---11---9--x----7---5--x-----4----5--x---7--x--|

Ain't got a soapbox I can stand upon
But God gave me a stage, a guitar and a song

My daddy told me, "son, don't you get involved in
Politics, religions or other people's quotes"


[Refrain]

e|---------x-----------x--------x-|
B|---------x-----------x---9--9-x-|
G|--6--6---x--9--8--8--x--------x-| x3
D|---------x-----------x--------x-|
A|---------x-----------x---7----x-|
E|--5--5---x--9--7-----x--------x-|

I'll paint the picture, let me set the scene
I know when I have children they will know what it means
And I pass on these things my family's given to me

e|-----------------------|
B|-----------------------|
G|--6-6-6-6---8-8-8-8-8--|
D|-----------------------|
A|-----------------------|
E|--5-5-5-5---7-7-7-7-7--|

Just love and understanding, positivity

[Chorus]

e|-------x-----------x-----------x-------------x------x--|
B|--7/9--x-----------x-----------x-------------x------x--|
G|-------x---11---9--x----8---6--x-----4----6--x---8--x--| x6
D|-------x-----------x-----------x-------------x------x--| 
A|--7----x-----------x-----------x-------------x------x--|
E|-------x---11---9--x----7---5--x-----4----5--x---7--x--|

We could change this whole world with a piano
Add a bass, some guitar, grab a beat and away we go
I'm just a boy with a one-man show
No university, no degree, but lord knows
Everybody's talking 'bout exponential growth
And the stock market crashing in their portfolios
While I'll be sitting here with a song that I wrote
Sing, love could change the world in a moment
But what do I know?
Mmmmmmmmm... Love can change the world in a moment but what do I know..
Mmmmmmmmm... Love can change the world in a moment..

e|-------x-----------x-----------x-------------x------x--|
B|--7/9--x-----------x-----------x-------------x------x--|
G|-------x---11---9--x----8---6--x-----4----6--x---8--x--| x2
D|-------x-----------x-----------x-------------x------x--| 
A|--7----x-----------x-----------x-------------x------x--|
E|-------x---11---9--x----7---5--x-----4----5--x---7--x--|

The revolution's coming, it's a minute away
I saw people marching in the streets today
You know we are made up of love and hate
But both of them are balanced on a razor blade

[Refrain]
                             
e|---------x-----------x--------x-|
B|---------x-----------x---9--9-x-|
G|--6--6---x--9--8--8--x--------x-| x3
D|---------x-----------x--------x-|
A|---------x-----------x---7----x-|
E|--5--5---x--9--7-----x--------x-|

I'll paint the picture, let me set the scene
I know, I'm all for people following their dreams
Just re-remember life is more than fittin' in your jeans

e|-----------------------|
B|-----------------------|
G|--6-6-6-6---8-8-8-8-8--|
D|-----------------------|
A|-----------------------|
E|--5-5-5-5---7-7-7-7-7--|

It's love and understanding, positivity

[Repeat Chorus]

[Refrain]

e|---------x-----------x--------x-|
B|---------x-----------x---9--9-x-|
G|--6--6---x--9--8--8--x--------x-| x3
D|---------x-----------x--------x-|
A|---------x-----------x---7----x-|
E|--5--5---x--9--7-----x--------x-|


I'll paint the picture, let me set the scene
You know, the future's in the hands of you and me
So let's all get together, we can all be free

e|-----------------------|
B|-----------------------|
G|--6-6-6-6---8-8-8-8-8--|
D|-----------------------|
A|-----------------------|
E|--5-5-5-5---7-7-7-7-7--|

Spread love and understanding, positivity

[Repeat Chorus]
[End]

Listen to the song and get the tempo. You'll get by.
Watch: https://www.youtube.com/watch?v=TTUQ8Idrowg
He DOES NOT use a capo. Thanks.
 
************************************


xxxxxxx  Tap
| /  Slide up

************************************ 

            
            
Suggest correction
Creating personal tab
Creating personal tab
You can edit any tab online and save it as your Personal.

You can edit, replace or remove any tab part or add personal notes – all changes will be seen only by you.

Personal tabs can be accessed anytime from any device, even offline.
Learn more »
Give kudos to tab author, rate the tab!
1 2 3 4 5
comments
print report bad tab
guest
You may want to rate the tab now too:
select rating
Wanna post a correction for this tab? Suggest correction