Oops, an error
Loading. Please wait.

You Need To Cut Your Hair Chords

version 2
version 2

Whole song

1,321 views 9 this week
no commentswrite comment
1 2 3 4 5
2 more votes to show rating
add to favorites
launch autoscroll
font size
0
reset
transpose
0
reset
display chords
guitar tuner
×
Best way to learn
"You Need To Cut Your Hair"
Autoscroll
slow
fast
+/-
esc
set tempo
stop
Author
Difficulty
  follow
intermediate
You Need To Cut Your Hair - Ed Sheeran
Album: Want some?


if you don't know yet how to play bar chords put capo on 4th fret and play shapes of A, 
G, D and F(x33211)
or play them like this

      C# 4-4-3-x-x-x
      B  14-14-13-x-x-x
      F# 9-9-8-x-x-x
      A  12-12-11-x-x-x or x-7-7-6-x-x or normal chord 002220 

[Intro]
 
 I
 
e|--------------------------------------------------------|
B|----------------9--9--9--9\7----------------------------|
D|---------9----------------------------------------------|
D|------11---11-------------------------------------------|
A|---11---------------------------------------------------|
E|--------------------------------------------------------|

II

e|--------------------------------------------------------|
B|--------------------------------------------------------|
D|---------9-----9--9--9--9\8-----------------------------|
D|------11---11-------------------------------------------|
A|---11---------------------------------------------------|
E|--------------------------------------------------------|

III

e|--------------------------------------------------------|
B|----------------9--9--9--9\7----------------------------|
D|---------9----------------------------------------------|
D|------11---11-------------------------------------------|
A|---11---------------------------------------------------|
E|--------------------------------------------------------|

IV

e|--------------------------------------------------------|
B|----------------9-10-9----------------------------------|
D|------------------------11-9----------------------------|
D|------------------------------11\10/11------------------|
A|--------------------------------------------------------|
E|--------------------------------------------------------|

[Verse 1]                               C#
         B             F#
Well I walked from my house to yours
       A               C#
In a warm cold April rain
    B         F#
We barely went outdoors
         A                     C#
And your family took the blame
     B       F#
Take time to be with you
 A               C#
She can only glare
          B         F#
I’m a bad influence, that’ll do
        A
‘Cos I need to cut my hair
C#
Wash my mouth, change my clothes
B                         F#
Just don’t talk to those friends of yours
                  A
Tell them not to come here anymore
C#
Time to go, don’t be slow
B
This’ll only take a mo’
F#                        A
Take yourself right out of my door


[Hook]
     A                B   C#
It’s just that they don’t care
     B     F#
Dad said beware, watch your back
                       A
Just don’t reply to that woman there
     A           B       C#
And even if she makes a fuss
          B      F#
Just ignore that trust
F#
And don’t give in to lust
     A
And leave that one alone
N.C.
The girl’s trouble

[Instrumental]
(two rounds of C# B F# A or intro)

[Verse 2]
      B        F#
Time spent in burnt-down shed
A                 C#
Add up near two days
     B       F#
Fall down and cut my head
      A               C#
Take time to misbehave
      B        F#
Spend time and be with you
 A               C#
She can only glare
          B         F#
‘Cos you're a bad influence, that’ll do
        A
Boy you need to cut my hair
C#
Wash your mouth, change your clothes
B                         F#
Just don’t talk to those friends of yours
                  A
Tell them not to come here anymore
C#
Time to go, don’t be slow
B
This’ll only take a mo’
F#                        A
Take yourself right out of my door

[Hook]
      A                B   C#
It’s just that they don’t care
     B     F#
Dad said beware, watch your back
                       A
Just don’t reply to that woman there
     A           B       C#
And even if she makes a fuss
          B      F#
Just ignore that trust
F#
And don’t give in to lust
     A
And leave that one alone

[Verse 3]
            C#          B
This is the dancing song

Close your eyes
      F#
Hypnotise to the beat
          A                 C#
And the movement of the week
                 B
Do that shuffle of your feet
     F#
And pound out the fever, either
A                              C#
Dance as you’re a true believer
                            B
Cleaner lives are what you don’t see
 F#                    A
Feel the weight, gravitate
                  C#
Feel the pace of me
              B
This world is 2D
    F#                                 A
The only thing that’s free in life is love
A
And that don’t come cheap

[Hook]
      A                B   C#
It’s just that they don’t care
     B     F#
Dad said beware, watch your back
                       A
Just don’t reply to that woman there
     A           B       C#
And even if she makes a fuss
          B      F#
Just ignore that trust
F#
And don’t give in to lust
     A
And leave that one alone
A
The girl’s trouble



************************************

| \  Slide down
| /  Slide up
 

************************************
Suggest correction
Give kudos to tab author, rate the tab!
1 2 3 4 5
comments
print report bad tab
guest
You may want to rate the tab now too:
select rating
Wanna post a correction for this tab? Suggest correction