Oops, an error
Loading. Please wait.

Cmon Everybody tab

version 2
version 2

Whole song

  • Far more details than the other versions.

Interactive

283 views 6 this week
no commentswrite comment
1 2 3 4 5
3 more votes to show rating
add to favorites
×
Save as Personal and add changes to this tab that will be seen only by you. Learn more ›
×
You can save this tab as Personal to edit and correct it or add notes. All changes will be seen only by you. Learn more »
launch autoscroll
font size
0
reset
how to read this tab
guitar tuner
backing track
0:00
0:00
edit
Autoscroll
slow
fast
+/-
esc
set tempo
stop
Author
Difficulty
About this tab version
Far more details than the other versions. Was this info helpful? Yes No
C'MON EVERYBODY

As recorded by Eddie Cochran
(From the 1958 Album 12 OF HIS BIGGEST FAVORITES)

Words and Music by Eddie Cochran & Jerry Capeheart

Transcribed by Slowhand


Gtr I (E A D G B E) - 'Eddie Cochran - Electric Guitar 1'
Gtr II (E A D G B E) - 'Eddie Cochran - Electric Guitar 2'


 Intro 1
  Q=178(8=s8)
  N.C.
 4/4
  Gtr II (Clean El. Gtr.)
  PM------------------------------------------------------------------|
  E E E E E E E E   E E E E E E E E   E E E E E E E E   E E E E E E E E
|-----------------|-----------------|-----------------|------------------||
|-----------------|-----------------|-----------------|------------------||
|-----------------|-----------------|-----------------|------------------||
|-----------------|-----------------|-----------------|------------------||
|-----------------|-----------------|-----------------|------------------||
|-0-0-0-0-0-0-0-0-|-0-0-0-0-0-0-0-0-|-0-0-0-0-0-0-0-0-|-0-0-0-0-0-0-0-0--||


   Intro 2 & Interlude
    E                   A                   B       A         E
    Gtr I (Clean El. Gtr.)
    Q   E E +E  E E E   Q   E E +E  E E E   E E E E E E E E   e E Q    H
||--0---0-0-(0)-0-0-0-|-0---0-0-(0)-0-0-0-|-2-2-2---0-0-0---|-0----------------|
||o-0---0-0-(0)-0-0-0-|-2---2-2-(2)-2-2-2-|-4-4-4---2-2-2---|-0----------------|
||--1---1-1-(1)-1-1-1-|-2---2-2-(2)-2-2-2-|-4-4-4---2-2-2---|-1----------------|
||--2---2-2-(2)-2-2-2-|-2---2-2-(2)-2-2-2-|-4-4-4---2-2-2---|-2----------------|
||o-2---2-2-(2)-2-2-2-|-0---0-0-(0)-0-0-0-|-2-2-2---0-0-0---|-2----------------|
||--0---0-0-(0)-0-0-0-|-------------------|-----------------|-0----------------|
|
|   Gtr II
|   PM--------------------------------------------------------|   PM--------|
|   E E E E +E  E E E   E E E E +E  E E E   E E E E E E E E   E E E E +E  E q
||--------------------|-------------------|-----------------|------------------|
||o-------------------|-------------------|-----------------|------------------|
||--------------------|-------------------|-----------------|------------------|
||--------------------|-------------------|-----------------|------------------|
||o-------------------|-0-0-0-0-(0)-0-0-0-|-2-2-2---0-0-0---|-----2-4-(4)-2----|
||--0-0-0-0-(0)-0-0-0-|-------------------|-----------------|-0-------------4--|


  E                   A                   B       A         E
  Q   E E +E  E E E   Q   E E +E  E E E   E E E E E E E E   e E Q    H
|-0---0-0-(0)-0-0-0-|-0---0-0-(0)-0-0-0-|-2-2-2---0-0-0---|-0-----------------||
|-0---0-0-(0)-0-0-0-|-2---2-2-(2)-2-2-2-|-4-4-4---2-2-2---|-0-----------------||
|-1---1-1-(1)-1-1-1-|-2---2-2-(2)-2-2-2-|-4-4-4---2-2-2---|-1-----------------||
|-2---2-2-(2)-2-2-2-|-2---2-2-(2)-2-2-2-|-4-4-4---2-2-2---|-2-----------------||
|-2---2-2-(2)-2-2-2-|-0---0-0-(0)-0-0-0-|-2-2-2---0-0-0---|-2-----------------||
|-0---0-0-(0)-0-0-0-|-------------------|-----------------|-0-----------------||
|
| PM--------------------------------------------------------|   PM--------|
| E E E E +E  E E E   E E E E +E  E E E   E E E E E E E E   E E E E +E  E q
|-------------------|-------------------|-----------------|-------------------||
|-------------------|-------------------|-----------------|-------------------||
|-------------------|-------------------|-----------------|-------------------||
|-------------------|-------------------|-----------------|-------------------||
|-------------------|-0-0-0-0-(0)-0-0-0-|-2-2-2---0-0-0---|-----2-4-(4)-2-----||
|-0-0-0-0-(0)-0-0-0-|-------------------|-----------------|-0-------------4---||


 1st - 3rd Verses
  N.C.
  Gtr II
  E E E E E E E E   E E E E E E E E   Q  Q  Q  E E   +E  Q  E E E E E
|-----------------|-----------------|--------------|-------------------|
|-----------------|-----------------|--------------|-------------------|
|-----------------|-----------------|--------------|-------------------|
|-----------------|-----------------|--------------|-------------------|
|-----------------|-----------------|--------------|-------------------|
|-0-0-0-0-0-0-0-0-|-0-0-0-0-0-0-0-0-|-0--0--0--0-0-|-(0)-0--0-0-0-0-0--|


  E E E E E E E E   E E E E E E E E   Q  Q  Q  E E   +E  Q  E E E E E
|-----------------|-----------------|--------------|-------------------|
|-----------------|-----------------|--------------|-------------------|
|-----------------|-----------------|--------------|-------------------|
|-----------------|-----------------|--------------|-------------------|
|-----------------|-----------------|--------------|-------------------|
|-0-0-0-0-0-0-0-0-|-0-0-0-0-0-0-0-0-|-0--0--0--0-0-|-(0)-0--0-0-0-2-4--|


  A                 B                   A                 B
  Gtr I
  Q   Q   E E Q     Q   E E +E  E E E   Q   Q   E E Q     Q   E E +E  E E E
|-0---0---0-0-0---|-2---2-2-(2)-2-2-2-|-0---0---0-0-0---|-2---2-2-(2)-2-2-2--|
|-2---2---2-2-2---|-4---4-4-(4)-4-4-4-|-2---2---2-2-2---|-4---4-4-(4)-4-4-4--|
|-2---2---2-2-2---|-4---4-4-(4)-4-4-4-|-2---2---2-2-2---|-4---4-4-(4)-4-4-4--|
|-2---2---2-2-2---|-4---4-4-(4)-4-4-4-|-2---2---2-2-2---|-4---4-4-(4)-4-4-4--|
|-0---0---0-0-0---|-2---2-2-(2)-2-2-2-|-0---0---0-0-0---|-2---2-2-(2)-2-2-2--|
|-----------------|-------------------|-----------------|--------------------|
|
| Gtr II
| E E E E E E E E   E E E E +E  E E E   E E E E E E E E   E E E E +E  E E E
|-----------------|-------------------|-----------------|--------------------|
|-----------------|-------------------|-----------------|--------------------|
|-----------------|-------------------|-----------------|--------------------|
|-2-2-4-2-2-2-4-2-|-4-4-6-4-(4)-4-6-4-|-2-2-4-2-2-2-4-2-|-4-4-6-4-(4)-4-6-4--|
|-0-0-0-0-0-0-0-0-|-2-2-2-2-(2)-2-2-2-|-0-0-0-0-0-0-0-0-|-2-2-2-2-(2)-2-2-2--|
|-----------------|-------------------|-----------------|--------------------|


  1.,2.                     3.
  E                          E
  e E Q  H      W         3x E E Q  H      W
|-0-----------|-----------||-0-----------|------||
|-0-----------|----------o||-0-----------|------||
|-1-----------|-----------||-1-----------|------||
|-2-----------|-----------||-2-----------|------||
|-2-----------|----------o||-2-----------|------||
|-0-----------|-----------||-0-----------|------||
|
| e E Q  H      W         3x E E Q  H      W
|-------------|-----------||-------------|------||
|-------------|----------o||-------------|------||
|-------------|-----------||-------------|------||
|-------------|-----------||-------------|------||
|-2-----------|----------o||-2-----------|------||
|-0-----------|-----------||-0-----------|------||


   Outro
    E                   A
    Q   E E +E  E E E   Q   E E +E  E E E
||--0---0-0-(0)-0-0-0-|-0---0-0-(0)-0-0-0-|
||o-0---0-0-(0)-0-0-0-|-2---2-2-(2)-2-2-2-|
||--1---1-1-(1)-1-1-1-|-2---2-2-(2)-2-2-2-|
||--2---2-2-(2)-2-2-2-|-2---2-2-(2)-2-2-2-|
||o-2---2-2-(2)-2-2-2-|-0---0-0-(0)-0-0-0-|
||--0---0-0-(0)-0-0-0-|-------------------|
|
|   PM-------------------------------------
|   E E E E +E  E E E   E E E E +E  E E E
||--------------------|-------------------|
||o-------------------|-------------------|
||--------------------|-------------------|
||--------------------|-------------------|
||o-------------------|-0-0-0-0-(0)-0-0-0-|
||--0-0-0-0-(0)-0-0-0-|-------------------|


  B       A         E
  E E E E E E E E   e E Q    H        3x
|-2-2-2---0-0-0---|-0-----------------||
|-4-4-4---2-2-2---|-0----------------o||
|-4-4-4---2-2-2---|-1-----------------||
|-4-4-4---2-2-2---|-2-----------------||
|-2-2-2---0-0-0---|-2----------------o||
|-----------------|-0-----------------||
|
|-------------------|   PM--------|
| E E E E E E E E   E E E E +E  E q   3x
|-----------------|-------------------||
|-----------------|------------------o||
|-----------------|-------------------||
|-----------------|-------------------||
|-2-2-2---0-0-0---|-----2-4-(4)-2----o||
|-----------------|-0-------------4---||


Duration Legend
---------------
W - whole; H - half; Q - quarter; E - 8th; S - 16th; T - 32nd; X - 64th; a - acciaccatura
+ - note tied to previous; . - note dotted; .. - note double dotted
Uncapitalized letters represent notes that are staccato (1/2 duration)
Irregular groupings are notated above the duration line
Duration letters will always appear directly above the note/fret number it represents the
duration for.  Duration letters with no fret number below them represent rests.  Multi-
bar rests are notated in the form Wxn, where n is the number of bars to rest for.  Low
melody durations appear below the staff

Tablature Legend
----------------
 h   - hammer-on
 p   - pull-off
 b   - bend
 pb  - pre-bend
 r   - bend release (if no number after the r, then release immediately)
 /\  - slide into or out of (from/to "nowhere")
 s   - legato slide
 S   - shift slide
  - natural harmonic
[n]  - artificial harmonic
n(n) - tapped harmonic
 ~   - vibrato
 tr  - trill
 T   - tap
 TP  - trem. picking
 PM  - palm muting
\n/  - tremolo bar dip; n = amount to dip
 \n  - tremolo bar down
 n/  - tremolo bar up
/n\  - tremolo bar inverted dip
 =   - hold bend; also acts as connecting device for hammers/pulls
 <>  - volume swell (louder/softer)
 x   - on rhythm slash represents muted slash
 o   - on rhythm slash represents single note slash

Misc Legend
-----------
 |  - bar
||  - double bar
||o - repeat start
o|| - repeat end
*|  - double bar (ending)
 :  - bar (freetime)
 $  - Segno
 &  - Coda
Tempo markers -  = BPM(8/16=s8/s16), where s8 = swing 8ths, s16 = swing 16ths



Ah well, c'mon everybody and let's get together tonight
I got some money in my jeans and I'm really gonna spend it right
Well I've been a-doin' my homework all week long
And now the house is empty and the folks are gone
Ooo C'mon everybody

Ah well my baby's number one but I'm gonna dance with three or four
And the house'll be a-shakin' from my bare feet slappin' on the floor
Well, when you hear that music you can't sit still
If your brother won't rock then your sister will
Ooo C'mon everybody

Well we'll really have a party but we gotta put a guard outside
If my folks come a-home I'm afraid they're gonna have my hide
They'll be no more movies for a week or two
No more runnin' round with the usual crew
Who cares C'mon everybody

C'mon everybody
C'mon everybody
Suggest correction
Creating personal tab
Creating personal tab
You can edit any tab online and save it as your Personal.

You can edit, replace or remove any tab part or add personal notes – all changes will be seen only by you.

Personal tabs can be accessed anytime from any device, even offline.
Learn more »
Give kudos to tab author, rate the tab!
1 2 3 4 5
comments
print report bad tab
guest
You may want to rate the tab now too:
select rating
Wanna post a correction for this tab? Suggest correction