Oops, an error
Loading. Please wait.

Somethin Else Bass Tab

version 2
version 2

Whole song

Interactive

967 views 393 this week
no commentswrite comment
1 2 3 4 5
3 more votes to show rating
add to favorites
launch autoscroll
font size
0
reset
guitar tuner
Autoscroll
slow
fast
+/-
esc
set tempo
stop
Help us to improve Ultimate-Guitar.com Take our survey!
×
Author
Somethin’ Else
Single release by Eddie Cochran in 1959, reaching #22 in UK
Tab by bass50611. Good old Rock ‘n’ Roll As per original 
Symbol ‘.’ Are pause dots.

                 PLAY QUAVERS THROUHOUT THE SONG 

Intro:
G|------------------------------------|
D|------------------------------------|
A|-0-2-4-4-5-5-5--4-5-5-5--4-5-5--5-5-|
E|------------------------------------|
                                           (Break)
G|-----------------------------------------|
D|-----------------------------------------|
A|-0-2-4-5-5-5--4-5-5-5--5-----------------|
E|-------------------------5-5-5-5-5-5-5-5-|

Verse 1:
     ‘.’       ‘.’
G|------------------------------------------------------------|
D|------------------------------------------------------------|
A|-5--5------5--5------0-2-4-5-5-5-5-5-5-5-5--5-5-5-5-5-0-2-4-|
E|------------------------------------------------------------|

G|--------------------------------------------------------------------|
D|--------------------------------------------------------------------|
A|-5-5-5-5-5-5-5-5--5-5-5-5-5-5-4-2--0-0-0-0-0-0-0-0--0-0-0-0-0-0-0-0-|
E|--------------------------------------------------------------------|

                                                                   ‘.’ ‘.’
G|------------------------------------------------------------------------|
D|------------------------------------------------------------------------|
A|----------------------------------0-0-0-0-0-0-0-0-----------------5---5-|
E|-3-3-3-3-3-3-3-3--3-3-3-3-3-3-3-3-----------------3-3-3-3-3-3-3-3-------|

Interlude:
G|------------------------------------|
D|------------------------------------|
A|-0-2-4-4-5-5-5--4-5-5-5--4-5-5--5-5-|
E|------------------------------------|
                                           (Break)
G|-----------------------------------------|
D|-----------------------------------------|
A|-0-2-4-5-5-5--4-5-5-5--5-----------------|
E|-------------------------5-5-5-5-5-5-5-5-|

Verse 2:
     ‘.’       ‘.’
G|------------------------------------------------------------|
D|------------------------------------------------------------|
A|-5--5------5--5------0-2-4-5-5-5-5-5-5-5-5--5-5-5-5-5-0-2-4-|
E|------------------------------------------------------------|

G|--------------------------------------------------------------------|
D|--------------------------------------------------------------------|
A|-5-5-5-5-5-5-5-5--5-5-5-5-5-5-4-2--0-0-0-0-0-0-0-0--0-0-0-0-0-0-0-0-|
E|--------------------------------------------------------------------|

                                                                   ‘.’ ‘.’
G|------------------------------------------------------------------------|
D|------------------------------------------------------------------------|
A|----------------------------------0-0-0-0-0-0-0-0-----------------5---5-|
E|-3-3-3-3-3-3-3-3--3-3-3-3-3-3-3-3-----------------3-3-3-3-3-3-3-3-------|

Interlude:
G|------------------------------------|
D|------------------------------------|
A|-0-2-4-4-5-5-5--4-5-5-5--4-5-5--5-5-|
E|------------------------------------|
                                           (Break)
G|-----------------------------------------|
D|-----------------------------------------|
A|-0-2-4-5-5-5--4-5-5-5--5-----------------|
E|-------------------------5-5-5-5-5-5-5-5-|

Verse 3:
     ‘.’       ‘.’
G|------------------------------------------------------------|
D|------------------------------------------------------------|
A|-5--5------5--5------0-2-4-5-5-5-5-5-5-5-5--5-5-5-5-5-0-2-4-|
E|------------------------------------------------------------|

G|--------------------------------------------------------------------|
D|--------------------------------------------------------------------|
A|-5-5-5-5-5-5-5-5--5-5-5-5-5-5-4-2--0-0-0-0-0-0-0-0--0-0-0-0-0-0-0-0-|
E|--------------------------------------------------------------------|

                                                                   ‘.’ ‘.’
G|------------------------------------------------------------------------|
D|------------------------------------------------------------------------|
A|----------------------------------0-0-0-0-0-0-0-0-----------------5---5-|
E|-3-3-3-3-3-3-3-3--3-3-3-3-3-3-3-3-----------------3-3-3-3-3-3-3-3-------|

Interlude:
G|------------------------------------|
D|------------------------------------|
A|-0-2-4-4-5-5-5--4-5-5-5--4-5-5--5-5-|
E|------------------------------------|
                                           (Break)
G|-----------------------------------------|
D|-----------------------------------------|
A|-0-2-4-5-5-5--4-5-5-5--5-----------------|
E|-------------------------5-5-5-5-5-5-5-5-|

Verse 4:
     ‘.’       ‘.’
G|------------------------------------------------------------|
D|------------------------------------------------------------|
A|-5--5------5--5------0-2-4-5-5-5-5-5-5-5-5--5-5-5-5-5-0-2-4-|
E|------------------------------------------------------------|

G|--------------------------------------------------------------------|
D|--------------------------------------------------------------------|
A|-5-5-5-5-5-5-5-5--5-5-5-5-5-5-4-2--0-0-0-0-0-0-0-0--0-0-0-0-0-0-0-0-|
E|--------------------------------------------------------------------|
                                                                   ‘.’ ‘.’
G|------------------------------------------------------------------------|
D|------------------------------------------------------------------------|
A|----------------------------------0-0-0-0-0-0-0-0-----------------5---5-|
E|-3-3-3-3-3-3-3-3--3-3-3-3-3-3-3-3-----------------3-3-3-3-3-3-3-3-------|

Outro:                      (Repeat To Fade)
G|------------------------------------|
D|------------------------------------|
A|-0-2-4-4-5-5-5--4-5-5-5--4-5-5--5-5-|
E|------------------------------------|

Symbol '.' Are Pause Dots


A look a-there, here she comes
There comes that girl again
Wanted to date her since I don't know when
But she don't notice me when I pass
She goes with all the guys from outa my class
But that can't stop me from a-thinkin' to myself
She's sure fine-lookin' man, she's something else

Hey, look a-there, across the street
There's a car made just for me
To own that car would be a luxury
But my dollar can't afford the gas
A brand new convertible is outa my class
But that can't stop me from a-thinkin' to myself
That car's fine-lookin' man, it's something else

Hey, look a-here, just wait and see
Worked hard and saved my dough
I'll buy that car that I been wanting so
Get me that girl and we'll go ridin' around
We'll look real sharp with the flight top down
I keep right on a-dreamin' and a-thinkin' to myself
When it all comes true man, wow, that's something else

Look a-there, what's all this
Never thought I'd do this before
But here I am a-knockin' on her door
My car's out front and it's all mine
Just a forty-one Ford, not a fifty-nine
I got that girl an' I'm a-thinkin' to myself
She's sure fine-lookin' man, wow, she's something else
Suggest correction
Give kudos to tab author, rate the tab!
1 2 3 4 5
comments
print report bad tab
guest
You may want to rate the tab now too:
select rating
Wanna post a correction for this tab? Suggest correction