Oops, an error
Loading. Please wait.

Summertime Blues Bass Tab

version 1
version 1

Whole song

Interactive

2,704 views 1 this week
no commentswrite comment
1 2 3 4 5
1 last vote to show rating
add to favorites
launch autoscroll
font size
0
reset
guitar tuner
Autoscroll
slow
fast
+/-
esc
set tempo
stop
Help us to improve Ultimate-Guitar.com Take our survey!
×
Author
Difficulty
novice
EDDIE COCHRAN - SUMMERTIME BLUES

INTRO:

G---------------------------------|
D---------------------------------|
A-6h7-7-7-6h7-7-7-6h7-7-7-6h7-7-7-|
E---------------------------------|

RIFF:

G---------------------------------|
D---------7-7-7-7-7-9-9-9---------|
A-6h7-7-7-----------------7-7-7-7-|
E---------------------------------|

G---------------------------------|
D---------7-7-7-7-7-9-9-9---------|
A-6h7-7-7-----------------7-7-7-7-|
E---------------------------------|

VERSE:

G---------------------------------|
D---------------------------------|
A-6h7-7-7-6h7-7-7-6h7-7-7-6h7-7-7-|
E---------------------------------|

G---------------------------------|
D---------7-7-7-7-7-9-9-9---------|
A-6h7-7-7-----------------7-7-7-7-|
E---------------------------------|

CHORUS:

G---------------------------------|
D-7-7-7-7-7-7-7-7-7-7-7-7-7-7-7-7-|
A---------------------------------|
E---------------------------------|

G---------------------------------|
D---------------------------------|
A-7-------------------------------|
E---------------------------------|

G---------------------------------|
D-7-7-7-7-7-7-7-7-7-7-7-7-7-7-7-7-|
A---------------------------------|
E---------------------------------|

G---------------------------------|
D---------------------------------|
A-7-------------------------------|
E---------------------------------|
Suggest correction
Give kudos to tab author, rate the tab!
1 2 3 4 5
comments
print report bad tab
guest
You may want to rate the tab now too:
select rating
Wanna post a correction for this tab? Suggest correction