Oops, an error
Loading. Please wait.

Twenty Flight Rock Tab

version 3
version 3

Whole song

Interactive

31,267 views 51 this week
no commentswrite comment
1 2 3 4 5
x 10
add to favorites
launch autoscroll
font size
0
reset
how to read this tab
guitar tuner
Autoscroll
slow
fast
+/-
esc
set tempo
stop
Help us to improve Ultimate-Guitar.com Take our survey!
×
Author
Difficulty
novice
Song: Twenty Flight Rock
Artist: Eddie Cochran

The great ones always die very young. Eddie was taken away
from us about 50 years ago. Besides Summertime Blues, this is
probably one of his most popular tracks. And yet again, I'm 
surprised that this hasn't been properly tabbed out yet.
Another standard I,IV,V, A,D,E progression. Should be easy to pick
up quickly and the solo is a goody as well. Strums not exact.
Listen for the changes. Lets go!


[Main Riff/Verse]

       A                 A                 D           E
e|----------------|-----------------|-------------|--------------|
B|----------------|-----------------|-------2-----|--------------|
G|---------2------|----------2------|-------2-----|--------------|
D|---------2---X3-|----------2--X4--|-0-3/4---X2--|--------2--X2-|
A|-0--3/4---------|--0--3/4---------|-------------|--------2-----|
E|----------------|-----------------|-------------|--0-3/4-------|


[Chorus]

(do a light palm mute)
"So I walk 1, 2 flight 3 flight 4...."

              A                         D          A
e|-------------------------------------------------|-----------------|------------------------|
B|-------------------------------------------------|-----------------|------------------------|
G|-------------------------------------------------|-2-4-2-4-5-4-2-4-|------------------------|
D|----------2-4-2-4-5-4-2-4---2-4-2-4-5-4-2-4--x-2-|-0-0-0-0-0-0-0-0-|-2-4-2-4-5-4-2-4--------|
A|----------0-0-0-0-0-0-0-0---0-0-0-0-0-0-0-0------|-----------------|-0-0-0-0-0-0-0-0--------|
E|-0--2--4-----------------------------------------|-----------------|------------------------|

    E
e|------------------|
B|------------------|
G|------------------|
D|------------------|
A|-2-4-2-4-5-4-2-4--|
E|-0-0-0-0-0-0-0-0--|


[Main Riff/Verse]

[Chorus]


[Solo]  

(those fans of Brian Setzer will be familiar with this)

e|-5-5-5-5-5-5-5-5--|--8p7p5-8p7p5--8p7p5------------|-8p7p5--------8p7p5--------|
B|-5-5-5-5-5-5-5-5--|--8p7p5-8p7p5--8p7p5--8p7p5-----|-8p7p5-8p7p5--8p7p5-8p7p5--|
G|-6-6-6-6-6-6-6-6--|----------------------8p7p5-----|-------8p7p5--------8p7p5--|
D|------------------|-----------------------------X2-|---------------------------|
A|------------------|--------------------------------|---------------------------|
E|------------------|--------------------------------|---------------------------|

e|--------|---------------------4/5-----------------|
B|-4/5-5--|------4/5------------4/5-----------------|
G|-5/6-6--|------5/6-5-7-7-5-7--5/6-----5-7-5--5~---|
D|--------|------------------------------------7~---|
A|--------|-----------------------------------------|
E|--------|-----------------------------------------|


[Main Riff/Verse]

[Chorus]

     
[End]

      G#9/G9
e|--------|
B|-11\10--|
G|-10\9---|
D|-10\9---|
A|-11\10--|
E|--------|

That's it for that one guys. Pretty easy stuff. Haven't
decided what to tab out next but, there will be something.
Let me know what you think! Have fun!


************************************

| /  Slide up
| x  Dead note
| p  Pull-off
| ~  Vibrato
| \  Slide down

************************************
Suggest correction
comments
print report bad tab
guest
You may want to rate the tab now too:
select rating
Wanna post a correction for this tab? Suggest correction