Oops, an error
Loading. Please wait.

Twenty Flight Rock Tab

version 4
version 4

Whole song

Interactive

6,063 views 3 this week
no commentswrite comment
1 2 3 4 5
please rate
add to favorites
launch autoscroll
font size
0
reset
how to read this tab
guitar tuner
Tab Pro tools
  • play this tab
  • loop segment
  • change instrument
  • show fretboard
  • metronome
×
Best way to learn
"Twenty Flight Rock"
Autoscroll
slow
fast
+/-
esc
set tempo
stop
Difficulty
novice
Twenty Flight Rock / Tabs
Eddie Cochran

Hi I'm not going to take any credit for this tab it was emailed to me a awesome
guitarist by the name of Mac Hardcase you should check out his youtube channel he
covers a great deal of classic rockabilly song and done so gracefully so a big
thanks to mac for bringing this tab to light CHEERS BUDDY!!!!!!!!!!!!
I hope you enjoy this tab as much as i have the other tab is pure crap this is better LOL
P.S. here's a link to this guy's channel http://www.youtube.com/user/MacHardcase

During the verses the riff goes like this:

   A  P.M. Palm Mute / = Slide in  h = Hammer on
E|-----------------------------------------|
B|-----------------------------------------|
G|-----------2-----------2------------2----|
D|--1/2------2--1/2------2---1/2------2---2|
A|--0---3h4-----0---3h4------0---3h4------0|
E|-----------------------------------------|
A
I've got a girl with a record machine
When it comes to rockin, she's a queen


   D  P.M. Palm Mute / = Slide in
E|---------------------------------------|
B|--2/3------3--2/3------3--2/3------3--3|
G|--1/2------2--1/2------2--1/2------2--2|
D|--0---3/4-----0---3/4-----0---3/4-----0|
A|---------------------------------------|
E|---------------------------------------|
D
We love to dance on a Saturday night

A
All alone where I can hold her tight

   E7 P.M. Palm Mute
E|----------------------------------------------------|
B|----------------------------------------------------|
G|------------------------------------2---------------|
D|----------2----------2----------2---2---------------|
A|---2------2---2------2---2------2---0---------------|
E|---0-3h4------0-3h4------0-3h4----------0-0-2-2-3-3-|

E
But she lives on 20th floor uptown !Break!
……And the elevator has broken down

During the Chorus the riff goes like this:

   A  P.M. Palm Mute                    Rockabilly Rhythm ! !

E|---------------------------------------------------------|
B|---------------------------------------------------------|
G|---------------------------------------------------------|
D|--2-2-----2---2-2-4-2---2-2-----2---2-2-4-2---2-2-----2--|
A|--0-0-3h4-----0-0-0-0---0-0-3h4-----0-0-0-0---0-0-3h4----|
E|---------------------------------------------------------|

  Downstroke   Upstroke

 During the Chorus the riff goes like this:

   D  P.M. Palm Mute                  Rockabilly Rhythm ! !

E|---------------------------------------|
B|--3-3-----3-3-3-3-3---3-3-----3—3-3-3-3|
G|--2-2-----2-2-2-4-2---2-2-----2—2-2-4-2|
D|--0-0-3/4-0-0-0-0-0---0-0-3/4-0-0-0-0-0|
A|---------------------------------------|
E|---------------------------------------|

  Downstroke   Upstroke


During the Chorus the riff goes like this:

   E7 P.M. Palm Mute                  Rockabilly Rhythm ! !

E|-----------------------------------------|
B|-----------------------------------------|
G|-----------------------------------------|
D|-----------------------------------------|
A|---2-2-----2-2-2-4-2----2-2-----2-2-2-4-2|
E|---0-0-3h4-0-0-0-0-0----0-0-3h4-0-0-0-0-0|

  Downstroke   Upstroke


Guitar Solo part 1  / = Slide in

E|--4/5-5-5-5-5-5-5--4/5-5-5-5-5-5-5--4/5-5-5-5-5-5-5--5-5-5-5-5-5-5|
B|--4/5-5-5-5-5-5-5--4/5-5-5-5-5-5-5--4/5-5-5-5-5-5-8--8-8-8-8-8-8-8|
G|--5/6-6-6-6-6-6-6--5/6-6-6-6-6-6-6--5/6-6-6-6-6-6-6--6-6-6-6-6-6-6|
D|------------------------------------------------------------------|
A|------------------------------------------------------------------|
E|------------------------------------------------------------------|

  Downstroke   Upstroke

A
Guitar Solo part 2     Guitar Solo part 3


E|----5---5---5---5--------------4/5-5-5----8/9----9----9---12-12-12-12--9|
B|----5---5---5---5----1/2-2-2---4/5-5-5----9/10—-10---10---10-10-10-10-10|
G|----5---5---5---5----1/2-2-2---5/6-6-6----8/9----9----9----9--9--9--9--9|
D|----4---4---4---4----1/2-2-2---6/7-7-7---10/11--11---11---11-11-11-11-11|
A|-5--5---5---5---5----0--------------------------------------------------|
E|------------------------------------------------------------------------|

  Downstroke   Upstroke

Guitar Solo part 4


E|----7---6/7----5---4/5---------------------------------------|
B|----7---6/7----5---4/5---1/2-2-2-2-2-2-2---1/2-2-2-2-2-2-2---|Back to Verse
G|----7---6/7----5---4/5---1/2-2-2-2-2-2-2---1/2-2-2-2-2-2-2---|in the Key of A
D|----6---5/6----4---3/4---1/2-2-2-2-2-2-2---1/2-2-2-2-2-2-2---|
A|----7---6/7----5---4/5---0-----------------0-----------------|
E|-------------------------------------------------------------|

  Downstroke   Upstroke

Guitar Outro
Coming from Chorus E7

E|-------------------------------------------13\12≈≈≈≈≈--|
B|-------------------------------------------13\12≈≈≈≈≈--|
G|-------------------------------------------12\11≈≈≈≈≈--|
D|-------------------------------------------13\12≈≈≈≈≈--|
A|--2-2-----2-2-2-4-2---------4-4-5-5-6-6-7--------------|
E|--0-0-3h4-0-0-0-0-0-----5-5----------------------------|

  Downstroke   Upstroke ≈ Vibrato \ Slide down
comments
We did not receive enough feedback on this tab! Please rate:
print report bad tab
1 2 3 4 5
I want to post or [tab]
guest
You may want to rate the tab now too:
select rating
Please do not post tabs as comments. Select "correction" instead!