Oops, an error
Loading. Please wait.

Knock On Wood Bass Tab

version 1
version 1

Whole song

Interactive

14,984 views 15 this week
no commentswrite comment
1 2 3 4 5
x 5
add to favorites
launch autoscroll
font size
0
reset
guitar tuner
Autoscroll
slow
fast
+/-
esc
set tempo
stop
Help us to improve Ultimate-Guitar.com Take our survey!
×
Author
Difficulty
intermediate
this is my first tab so be nice.me and my friend have done this by ear so if its
a bit 'rusty' forgive us.
please leave comments on how good or bad it is.


Intro
G ---------------------------------------7------------|
D --------------------77777777---9999999----99999999--|
A -----7777777---10-----------------------------------|
E ----------------------------------------------------|

Verse
G -----11-------------------11------------------------|
D ----------14---11--------------14---11--------------| x2
A --12-------------------12---------------------------|
E ----------------------------------------------------|


G ----------------------------------------------------|
D -----11-------------------11------------------------|x2
A ----------14---11--------------14---11--------------|
E --12-------------------12---------------------------|


G -----11-------------------11------------------------|
D ----------14---11--------------14---11--------------| x2
A --12-------------------12---------------------------|
E ----------------------------------------------------|


G ----------------------------------------------------|
D -----11-------------------11------------------------|x2
A ----------14---11--------------14---11--------------|
E --12-------------------12---------------------------|


G -----11-------------------11------------------------|
D ----------14---11--------------14---11--------------| x2
A --12-------------------12---------------------------|
E ----------------------------------------------------|

Intro
G ---------------------------------------7------------|
D --------------------77777777---9999999----99999999--|
A -----7777777---10-----------------------------------|
E ----------------------------------------------------|

Verse
G -----11-------------------11------------------------|
D ----------14---11--------------14---11--------------| x2
A --12-------------------12---------------------------|
E ----------------------------------------------------|


G ----------------------------------------------------|
D -----11-------------------11------------------------|x2
A ----------14---11--------------14---11--------------|
E --12-------------------12---------------------------|


G -----11-------------------11------------------------|
D ----------14---11--------------14---11--------------| x2
A --12-------------------12---------------------------|
E ----------------------------------------------------|


G ----------------------------------------------------|
D -----11-------------------11------------------------|x2
A ----------14---11--------------14---11--------------|
E --12-------------------12---------------------------|


G -----11-------------------11------------------------|
D ----------14---11--------------14---11--------------| x2
A --12-------------------12---------------------------|
E ----------------------------------------------------|

G ---------------------------------------7------------|
D --------------------77777777---9999999----9-7-------|
A -----7777777---10------------------------------10---|
E ----------------------------------------------------|

G ----------------------------------------------------|
D ----------------------------------------------------|
A ----99999999--11-11-11-11-11-11-11-11--carrys--on-to|
E ----------------------------------------------------|

G ----------------------------------------------------|
D ------------------------------10--9-----------------|
A ----12-12-12-12-12-12-12-12-------------------------|
E ----------------------------------------------------|

G -----11-------------------11------------------------|
D ----------14---11--------------14---11--------------| x2
A --12-------------------12---------------------------|
E ----------------------------------------------------|

G ----------------------------------------------------|
D -----11-------------------11------------------------| x2
A ----------14---11--------------14---11--------------|
E --12-------------------12---------------------------|

G -----11-------------------11------------------------|
D ----------14---11--------------14---11--------------| x2
A --12-------------------12---------------------------|
E ----------------------------------------------------|

G ----------------------------------------------------|
D -----11---------------------------------------------|
A ----------14---11-----------------------------------|
E --12------------------------------------------------|

G -----11---------------------------------------------|
D ----------14---11-----------------------------------| 
A --12------------------------------------------------|
E ----------------------------------------------------|

G ----------------------------------------------------|
D -----11---------------------------------------------|
A ----------14---11-----------------------------------|
E --12------------------------------------------------|

G -----11---------------------------------------------|
D ----------14---11-----------------------------------| 
A --12------------------------------------------------|
E ----------------------------------------------------|

G ---------------------------------------7------------|
D --------------------77777777---9999999----9-7-------|
A -----7777777---10------------------------------10---|
E ----------------------------------------------------|

G --------------------------11------------------------|
D -----11------------------------14---11--------------| Reapeat to fade
A ----------14---11------12---------------------------|
E --12------------------------------------------------|
Suggest correction
comments
print report bad tab
guest
You may want to rate the tab now too:
select rating
Wanna post a correction for this tab? Suggest correction