Oops, an error
Loading. Please wait.

Cold Duck Time tab

version 2
version 2

Whole song

424 views 3 this week
no commentswrite comment
1 2 3 4 5
1 last vote to show rating
add to favorites
×
Save as Personal and add changes to this tab that will be seen only by you. Learn more ›
×
You can save this tab as Personal to edit and correct it or add notes. All changes will be seen only by you. Learn more »
launch autoscroll
font size
0
reset
how to read this tab
guitar tuner
edit
Autoscroll
slow
fast
+/-
esc
set tempo
stop
Difficulty
intermediate
This song makes a great jam session. Improvise in F Minor 

Melody 
e|------------|-------------------|----------------------8----------|X2
B|-----------9|-------------------|-----------------9-11---9--------|
G|---8-10-10--|----------8-10-10--|---------8-10-10----------10-8-10|
D|------------|------------------6|---------------------------------|
A|-8----------|--------8----------|-------8-------------------------|
E|------------|-------------------|---------------------------------|

Melody Ending
e|---------------------|
B|-----------9~~~----10|
G|---8-10-10---10~~~---|
D|---------------------|
A|-8-------------------|
E|---------------------|


Chords  F9                Bb7               F9               
e|-----------------|----------------|-----------------|----------------|X2
B|--8--8-----------|----------------|--8--8-----------|-------5/6\5/6--|
G|--8--8-----------|--7---7-7-------|--8--8-----------|--7----6/7\6/7--|
D|--7--7-----------|--6---6-6-------|--7--7-----------|--6----5/6\5/6--|
A|--8--8-----------|--x---x-x-------|--8--8-----------|--x-------------|
E|-----------------|--6---6-6-------|-----------------|--6-------------|

  
  Dbmaj7            Ebmaj7                   F9            Break 
e|-----------------|-----------------|-----------------|---------------|
B|-----------------|-----------------|---8-------------|---------------|
G|---5-------------|---7-------------|---8-------------|---------------|
D|---3-------------|---5-------------|---7-------------|---------------|
A|---4-------------|---6-------------|---8-------------|---------------|
E|-----------------|-----------------|-----------------|---------------|
Suggest correction
Creating personal tab
Creating personal tab
You can edit any tab online and save it as your Personal.

You can edit, replace or remove any tab part or add personal notes – all changes will be seen only by you.

Personal tabs can be accessed anytime from any device, even offline.
Learn more »
Give kudos to tab author, rate the tab!
1 2 3 4 5
comments
print report bad tab
guest
Wanna post a correction for this tab? Suggest correction