Oops, an error
Loading. Please wait.

California Dreamin intro tab

1,891 views 42 this week
5 commentsread comments
1 2 3 4 5
x 4
add to favorites
×
Save as Personal and add changes to this tab that will be seen only by you. Learn more ›
×
You can save this tab as Personal to edit and correct it or add notes. All changes will be seen only by you. Learn more »
launch autoscroll
font size
0
reset
how to read this tab
guitar tuner
edit
Autoscroll
slow
fast
+/-
esc
set tempo
stop
Author
Difficulty
[Intro]
e|-----------------------------|--------------x-9--------|---------------------------------------------------|
B|12---------------------------|--------------x-9--------|-----------------9-9-------------------9-----------|
G|11b---11--9--llbr9-----------|--------------x-9-----9~-|-----------------9-9-------------------9----9~-----|
D|-------------------11-9------|--9-11-11-9-------11-----|-11-9---------9------11~-p-9----------9--11--------|
A|------------------------11---|-------------------------|------11-9h11---------------11-9-------------------|
E|---------------------------9~|-------------------------|---------------------------------12-9--------------|

e|------------------------------|--------------------------|-------------------------------------------------|
B|------------------------------|-----12-------------------|---------9--------------------------------9------|
G|---------------11br9-11-9-----|--11b-----------9------9--|---------9--------------------------------9----9~|
D|-9-11-11-9-11------------11-11|-------------------11-----|------------11-9------------------------9---11---|
A|------------------------------|--------------------------|-11-9h11---------11/9-7-9-11-7-------------------|
E|------------------------------|--------7-9-7-9-----------|-------------------------------7-9-7-9-----------|

[Beginning of bass line and drums]
e|-----------------------------------|----------------------------|-----------------------------------|
B|-------------------------9x9x------|-------12-12-12-------------|12---------------------------------|
G|-----9----11b-9----------9x9x------|-9-11b----------9-11b-9-11b-|---11-9----------9----11-9---------|
D|--11---11-------11--9h11-----9-11~-|----------------------------|--------11--9-11---11------9-11~---|
A|-----------------------------------|----------------------------|-----------------------------------|
E|-----------------------------------|----------------------------|-----------------------------------|

e|-----------------------------|---------9----------------------------|--------------------------------|
B|-----------------------------|----9-12---12-------------------------|-------9-7h9p7---7h9p7----7-----|
G|-----------------------------|11b-----------11b-9----9-11-11br9-11-9|--9-11---------9-------9b-------|
D|--------------9/11~--9-11-9--|-------------------11~----------------|--------------------------------|
A|-11/9-7-9-7-9----------------|--------------------------------------|--------------------------------|
E|-----------------------------|--------------------------------------|--------------------------------|

e|-------------------------------|-----------------------------|--------------------------------9--9--9------|
B|----------9--------------------|-----------------------------|-9/12--12-9-----12-9-12----------12-12-12----|
G|---------9---------------------|-----------9------9-11b-11-9~|-----------11-9--------11b-9--9----------11b9|
D|9-9h11p9------9-9h11p9---9--9--|------------x11~-------------|----------------------------11---------------|
A|-----------------------11-11-9-|-7-9p7-9p7-------------------|---------------------------------------------|
E|-------------------------------|-----------------------------|---------------------------------------------|
            Not sure about this
e|-------------------------------|----------------------------------------|----------------------------------|
B|12-----------------------------|----------------------------------------|--------------------12-9----------|
G|--11-9----(11-9--9)x3----------|------------11br9-11p9---11br9-11p9-11p9|----9--11b-11----9------11br9-----|
D|------11--(----11-)--11-9------|-----------9----------11----------------|--11-11--------11-11---------11---|
A|-------------------------11-9--|-9-9h11p9-9-----------------------------|----------------------------------|
E|-------------------------------|----------------------------------------|----------------------------------|
                                                  just rhythm chords  
                                                  (don't know what he plays)
e|------------------------------------------9/|-9--x-9------7-x-x-7---5-x-5-x-x--5-x-5-----------------------|
B|------------------------------------------9/|-9--x-9------7-x-x-7---5-x-5-x-x--5-x-5------9--------9-------|
G|--9--11b9-11b9---9-11b-9------------------9/|-9--x-9------8-x-x-8---6-x-6-x-x--6-x-6---------------9-------|
D|11-11----------11--------11-----------------|-11-x-11-----9-x-x-9---7-x-7-x-x--7-x-7--9h11--9h11-11-11--11/|
A|----------------------------9-7-9-7---------|-11-x-11-----9-x-x-9---7-x-7-x-x--7-x-7-----------------------|
E|------------------------------------9-9-9---|9---x-9---7-7--x-x-7--5--x-5-x-x-5--x-5-----------------------|
                              Rhythm chords
e|-------------------------|--9---7--5----------------------------------------|------------------------------|
B|--------12---------------|--9---7--5------9----9----------------------------|------------------------------|
G|--------11br9-11-9-------|--9---8--6-------------------------------9--11p9--|-11br9------------------------|
D|----9--9-----------11-11-|--11--9--7--9h11--11---11/-----------9-11-------11|------11-9-9b9-6--------------|
A|9h11-11------------------|--11--9--7--------------------7-9/11--------------|----------------9-7-9b9-7-9-7-|
E|-------------------------|-9---7--5------------------7-9--------------------|-----------------------------9|
                                                       1:50 (Too hard to do the whole thing)
e|-------------------------------------------|----------------------------------|
B|-------------------------------9----9------|-12-------------------------------|
G|--------9-11b-9---------------------9------|---11-9---------------------------|
D|----9-11-------11-9-11-11--9h11--11--9--11/|-------11-------------------------|
A|9-11---------------------------------------|----------------------------------|
E|-------------------------------------------|----------------------------------|









************************************

| x   Dead note
| b   Bend
| ~   Vibrato
| p   Pull-off
| h   Hammer-on
| br  Bend release
| /   Slide up 

************************************

            
            
Suggest correction
Creating personal tab
Creating personal tab
You can edit any tab online and save it as your Personal.

You can edit, replace or remove any tab part or add personal notes – all changes will be seen only by you.

Personal tabs can be accessed anytime from any device, even offline.
Learn more »
comments
print report bad tab
5 comments total. Showing first comments.
0 reply
teemothunder 17 Feb 05, 2017 07:32 PM

Will tab the next minute if people want it.

0 reply
manzerman 10 Feb 15, 2017 06:22 AM

Please do

0 reply
HamishGardner 10 Apr 15, 2017 12:16 AM

You legend been keen on a tab for this for ages!

guest
You may want to rate the tab now too:
select rating
Wanna post a correction for this tab? Suggest correction