Oops, an error
Loading. Please wait.

Take Me Home Tonight tab

version 4
version 4

Whole song

Interactive

74,905 views 105 this week
6 commentsread comments
1 2 3 4 5
x 14
add to favorites
×
Save as Personal and add changes to this tab that will be seen only by you. Learn more ›
×
You can save this tab as Personal to edit and correct it or add notes. All changes will be seen only by you. Learn more »
launch autoscroll
font size
0
reset
how to read this tab
guitar tuner
edit
Autoscroll
slow
fast
+/-
esc
set tempo
stop
Author
Difficulty
Eddie Money
Take Me Home Tonight
Can't Hold Back (1986)

[Intro]
(0:00-0:21)
                                      
e|-------------------------------------|
B|o-----------------------------------o|
G|-------6-----6---------6-----8-------|
D|-----------6-----6---6---6-8---6-8---|
A|o----8---9-----9---9----------------o|
E|---6---------------------------------|(x4)

[Verse 1]
(0:22-0:49)
                                      
e|-------------------------------------|
B|o-----------------------------------o|
G|-------6-----6---------6-----8-------|
D|-----------6-----6---6---6-8---6-8---|
A|o----8---9-----9---9----------------o|
E|---6---------------------------------|(x8)

[Pre-Chorus 1]
(0:50-1:00)

e|-------------------------------------------|
B|-------------------------------------------|
G|--3---3---6-------8-------6-------8--------|
D|--4---4-----6-4-6---6-4-6---6-4-6---6-4-6--|
A|--4---4------------------------------------|
E|--2---2------------------------------------|

 [Chorus 1]
 (1:01-1:22)
               (x3)                                       (x2)
e|----------------|-----|------------------------------------|
B|o--------------o|-----|o----------------------------------o|
G|---6------------|-----|------6-----6---------6-----8-------|
D|---6--6--8--4---|--4--|----------6-----6---6---6-8---6-8---|
A|o--4--6--8--4--o|--4--|o---8---9-----9---9----------------o|
E|------4--6--2---|--2--|--6---------------------------------|

[Verse 2]
(1:23-1:36)
                                     
e|-------------------------------------|
B|o-----------------------------------o|
G|-------6-----6---------6-----8-------|
D|-----------6-----6---6---6-8---6-8---|
A|o----8---9-----9---9----------------o|
E|---6---------------------------------|(x4)

[Pre-Chorus 2]
(1:37-1:47)

e|-------------------------------------------|
B|-------------------------------------------|
G|--3---3---6-------8-------6-------8--------|
D|--4---4-----6-4-6---6-4-6---6-4-6---6-4-6--|
A|--4---4------------------------------------|
E|--2---2------------------------------------|

 [Chorus 2]
 (1:48-2:06)
               (x3) 
e|----------------|-----|-----------------------------------|
B|o--------------o|-----|-----------------------------------|
G|---6------------|-----|------6-----6---------6-----8------|
D|---6--6--8--4---|--4--|----------6-----6---6---6-8---6-8--|
A|o--4--6--8--4--o|--4--|----8---9-----9---9----------------|
E|------4--6--2---|--2--|--6--------------------------------|

[Bridge]
(2:07-2:34)
                                      
e|-------------------------------------|
B|o-----------------------------------o|
G|-------6-----6---------6-----8-------|
D|-----------6-----6---6---6-8---6-8---|
A|o----8---9-----9---9----------------o|
E|---6---------------------------------|(x2)

e|------------------|
B|------------4--6--|
G|------------3--5--|
D|------4-----1--3--|
A|------4-----1-----|
E|--6\--2--1--------|

keyboard and sax

 [Chorus 3]
 (2:35-3:30)
               (x3)
e|----------------|-----|
B|o--------------o|-----|
G|---6------------|-----|
D|---6--6--8--4---|--4--|
A|o--4--6--8--4--o|--4--|
E|------4--6--2---|--2--|



************************************

| \  Slide down
| o  reprise

************************************

            
            
Suggest correction
Creating personal tab
Creating personal tab
You can edit any tab online and save it as your Personal.

You can edit, replace or remove any tab part or add personal notes – all changes will be seen only by you.

Personal tabs can be accessed anytime from any device, even offline.
Learn more »
comments
print report bad tab
6 comments total. Showing first comments.
+4 reply
Guitarmaster94 498 Feb 25, 2008 10:33 AM

its gonna take me a little bit of time to get that intro/verse right tho, but anyway great tab!!!

+2 reply
Immolate666 10 Aug 23, 2008 10:27 AM

Looks great!

+1 reply
Deathro 67 May 15, 2009 01:13 PM

what happened nobody likes eddie money what 23 tabs

guest
You may want to rate the tab now too:
select rating
Wanna post a correction for this tab? Suggest correction