Oops, an error
Loading. Please wait.

Be All Mine Tonight chords

22 views 1 this week
no commentswrite comment
1 2 3 4 5
3 more votes to show rating
add to favorites
×
Save as Personal and add changes to this tab that will be seen only by you. Learn more ›
×
You can save this tab as Personal to edit and correct it or add notes. All changes will be seen only by you. Learn more »
launch autoscroll
font size
0
reset
transpose
0
reset
display chords
guitar tuner
edit
Autoscroll
slow
fast
+/-
esc
set tempo
stop
Author
Difficulty
Strumming Is this strumming pattern correct? Yes No
120 bpm
1
&
2
&
3
&
4
&
Listen
[Riff 1]
e|-----------------3-3--3----------------3-3-3--2----2-|
B|-----------------3-3--3----------------3-3-3--3----3-|
G|-----------------0-0--0----------------0-0-0--0----2-|
D|---------------------------------------------------0-|
A|--------------------------0--2--0--------------------|
E|----0--2--3------------------------------------------|

[Intro] 
e|-----------------3-3--3----------------3-3-3--2----2-2-2-0-2-2-2-|
B|-----------------3-3--3----------------3-3-3--3----3-3-3-3-3-3-3-|
G|-----------------0-0--0----------------0-0-0--0----2-2-2-2-2-2-2-|
D|---------------------------------------------------0-0-0-0-0-0-0-|
A|--------------------------0--2--0--------------------------------|
E|----0--2--3------------------------------------------------------|

e|-----------------3-3--3----------------3-3-3--2----2-|
B|-----------------3-3--3----------------3-3-3--3----3-|
G|-----------------0-0--0----------------0-0-0--0----2-|
D|---------------------------------------------------0-|
A|--------------------------0--2--0--------------------|
E|----0--2--3------------------------------------------|

[Verse]
D
Come on everybody won’t you give me a hand,
G
I’m working real hard even learned how to dance
A                                                   D
But she never comes easy, she never is satisfied
D
She left me to believe I had a chance
G
So I bought a new suit and cut my hair like a man
A                                                   D
Filled up the tank and I waited on the telephone

[Pre-Chorus]
G                                D   
Can you tell me why on earth you ran
         F#m                             A
She said don’t you worry, baby don’t you sweat

[Verse]
D
Then she called me up with tears in her eyes
G
Said I got something to tell you tonight
A                                                       D
So I did what she’d do and I drove through every light
D
When I got to her she just jumped on her feet
G
Said step on it babe I’m gonna need to speed
A                                                          D
And lit a white cigarette and stared out the window street

[Pre-Chorus]
       G                                D   
I said can you tell me why on earth you ran
         F#m                             A
She said don’t you worry, baby don’t you sweat

[Chorus]
Yeah she said
G      D    A
Be all mine tonight
G      D    A
Be all by my side
G      D    A
Be all mine tonight
        Em                G      A          D
Cause tomorrow never knows which way you’ll slide

[Riff 1]
e|-----------------3-3--3----------------3-3-3--2----2-|
B|-----------------3-3--3----------------3-3-3--3----3-|
G|-----------------0-0--0----------------0-0-0--0----2-|
D|---------------------------------------------------0-|
A|--------------------------0--2--0--------------------|
E|----0--2--3------------------------------------------|

[Verse]
D
Come on everybody won’t you give me a sign
G
Wish she’d tell me what she got on her mind
A                                                   D
I’ve got one desire and this secret is killing me
D
When I looked at her she just laughed at me
G
Threw her shoes out of the glass rolled her jeans to her knees
A                                                            D
Put her finger on my lip closed her eyes and she fell asleep

[Pre-Chorus]
       G                                D   
I said can you tell me why on earth you ran
         F#m                             A
She said don’t you worry, baby don’t you sweat
D
So I parked the car, and I laid on the horn
G
I said why’d you bring me here baby what’d you do it for
A                                                    D
And she looked at me and she whispered in my ear…

[Chorus] (x2)
Yeah and then she shouted out
G      D    A
Be all mine tonight
G      D    A
Be all by my side
G      D    A
Be all mine tonight
        Em                G      A       
Cause tomorrow never knows which way you’ll

[Outro]
e|-----------------3-3--3----------------3-3-3--2----2-|
B|-----------------3-3--3----------------3-3-3--3----3-|
G|-----------------0-0--0----------------0-0-0--0----2-|
D|---------------------------------------------------0-|
A|--------------------------0--2--0--------------------|
E|----0--2--3------------------------------------------|
Suggest correction
Creating personal tab
Creating personal tab
You can edit any tab online and save it as your Personal.

You can edit, replace or remove any tab part or add personal notes – all changes will be seen only by you.

Personal tabs can be accessed anytime from any device, even offline.
Learn more »
Give kudos to tab author, rate the tab!
1 2 3 4 5
comments
print report bad tab
guest
You may want to rate the tab now too:
select rating
Wanna post a correction for this tab? Suggest correction