Oops, an error
Loading. Please wait.

Death Letter Tab

67,369 views 108 this week
8 commentsread comments
1 2 3 4 5
x 17
add to favorites
launch autoscroll
font size
0
reset
how to read this tab
guitar tuner
×
Best way to learn
"Death Letter"
Autoscroll
slow
fast
+/-
esc
set tempo
stop
Author
Difficulty
Tuning
intermediate
D G D G B D
This song is really easy to figure out if you just listen to it. I didn't put all the 
in it, but it's a very versatile song so you can play it however you want and it'll still 
like the same thing.

Tabbed by: PeteSmith4@gmail.com

[Intro]
(Speed increases)

D|-----------3/5~-----|
B|---------0----------|
G|---0-2/3-0------0---| X3
D|---0-2/3-0------0---|
G|---0------------0---|
D|-3------------------|

[Verse]

D|---8-8-8-8-8-5/8-|-----------------|-----3-------3---|---3-------3---0-|
B|-------------0---|-----0-0-0---0-0-|-------------3---|---3-------3---0-|
G|-0-------0---0---|---3-3-3-0---0-3-|-3b3b3b3b--3b3b--|---0-------0-3-0-|
D|-0-------0---0---|-----0-0-0---0-0-|-0-0---0---0-0---|-0---0---0---0-0-|
G|-0-------0---0---|-0---------------|-0-----------0---|-0---0---0---0-0-|
D|-----------------|-----------------|-----------------|-----------------|

    I got a letter this morning                           the girl you
is dead

D|-----5---8-----0-|-----5---8-----5-|-0-0-------3/5~--|-------------3/5~|
B|---5---------5-0-|---5---------5-5-|-0-0-----0-------|-----------0-----|
G|---5---5---5-5-0-|---5---5---5-5-5-|-0-0-2/3-0-------|-0-----2/3-0-----|
D|/5-5---5---5-5-0-|/5-5---5---5-5-5-|-0-0-2/3---------|-0---0-2/3-------|
G|/5-5---5---5---0-|/5-5---5---5---5-|-0-0-------------|-0---0-----------|
D|-----------------|-----------------|-----------------|---3-------------|

    I got a letter this morning


D|-----7---10----7-|-----5---8-----5-|-0-0-------3/5~--|-------------3/5~|
B|---7---------7-7-|---5---------5-5-|-0-0-----0-------|-----------0-----|
G|---7---7---7-7-7-|---5---5---5-5-5-|-0-0-2/3-0-------|-0-----2/3-0-----|
D|/7-7---7---7-7-7-|/5-5---5---5-5-5-|-0-0-2/3---------|-0---0-2/3-------|
G|/7-7---7---7---7-|/5-5---5---5---5-|-0-0-------------|-0---0-----------|
D|-----------------|-----------------|-----------------|---3-------------|

                      the girl

[Verse]

D|-----------------|-----------------|-----------------|-----------------|
B|-------------0---|-0-----------0---|-0-----------0---|-0------------0--|
G|---3b--3b--3b0---|-0-3b--3b--3b0---|-0-3b--3b--3b0---|-0-3b--3b---3b0--|
D|---0---0---0-0---|-0-0---0---0-0---|-0-0---0---0-0---|-0-0---0----0-0--|
G|-0---0-------0---|-0---0-------0---|-0---0-------0---|-0---0--------0--|
D|---------------3-|---------------3-|---------------3-|-----------------|

    Well I grabbed up my suitcase                           on the


D|-----5---8-----0-|-----5---8-----5-|-0-0-------3/5~--|-------------3/5~|
B|---5---------5-0-|---5---------5-5-|-0-0-----0-------|-----------0-----|
G|---5---5---5-5-0-|---5---5---5-5-5-|-0-0-2/3-0-------|-0-----2/3-0-----|
D|/5-5---5---5-5-0-|/5-5---5---5-5-5-|-0-0-2/3---------|-0---0-2/3-------|
G|/5-5---5---5---0-|/5-5---5---5---5-|-0-0-------------|-0---0-----------|
D|-----------------|-----------------|-----------------|---3-------------|

    Well I grabbed up my suitcase

D|-----7---10----7-|-----5---8-----5-|-0-0-------3/5~--|-------------3/5~|
B|---7---------7-7-|---5---------5-5-|-0-0-----0-------|-----------0-----|
G|---7---7---7-7-7-|---5---5---5-5-5-|-0-0-2/3-0-------|-0-----2/3-0-----|
D|/7-7---7---7-7-7-|/5-5---5---5-5-5-|-0-0-2/3---------|-0---0-2/3-------|
G|/7-7---7---7---7-|/5-5---5---5---5-|-0-0-------------|-0---0-----------|
D|-----------------|-----------------|-----------------|---3-------------|

                      on the

[Ending]

D|-5-5-5-5---3-2-0-0---2---3-|
B|-0-0-0-0---0-0---0---------|
G|-0-0-0-0---------0---------|
D|-0-0-0-0---------0---------|
G|-0-0-0-0---------0---------|
D|---------------------------|



************************************

| b  Bend
| /  Slide up
| ~  Vibrato

************************************
Suggest correction
comments
print report bad tab
8 comments total. Showing first comments.
+1 reply
WhiteStripesIII 273 Jun 24, 2006 09:38 AM

That's an execellent tab of the best song ever

+2 reply
ufossuck 244 Jul 03, 2006 10:43 PM

I disagree with your claim of it being easy.

0 reply
jimbo09 10 Feb 13, 2007 09:29 AM

amazing song. i heard it for the first time today and had to learn it. this song is just brilliant, Son House is the greatest.

guest
You may want to rate the tab now too:
select rating
Wanna post a correction for this tab? Suggest correction