Oops, an error
Loading. Please wait.

Light Today Tab

version 1
version 1

Whole song

  • Use guitar with capo or ukulele.

Interactive

16 views 1 this week
no commentswrite comment
1 2 3 4 5
3 more votes to show rating
add to favorites
launch autoscroll
font size
0
reset
how to read this tab
guitar tuner
Autoscroll
slow
fast
+/-
esc
set tempo
stop
Help us to improve Ultimate-Guitar.com Take our survey!
×
Author
Difficulty
Capo
novice
5th fret
About this tab version
Use guitar with capo or ukulele. Was this info helpful? Yes No
(Waves crashing on shore)
(Footsteps on sand, walking left to right)
(Ukulele starts)

Play this riff throughout the whole song, singing starts at the third time 

e|---3----------3-----------3-------------3------------3-----------3---------|
B|---5----------5-----------5-------------4------------4-----------4---------|
G|------0-0---------0-0---------0--------------0-0---------0-0-----------0---|
D|---------------------------------------------------------------------------|
A|---------------------------------------------------------------------------|
E|---------------------------------------------------------------------------|

e|----3---------3-----------3-------------3-------------3----------3---------|
B|----3---------3-----------3-------------6-------------6----------6---------|
G|-------0-0----------0-0--------0--------------0-0----------0-0--------0----|
D|---------------------------------------------------------------------------|
A|---------------------------------------------------------------------------|
E|---------------------------------------------------------------------------|

[Chorus]
I saw the light today
I saw the light today
I saw the light today
I saw the light today

[Verse 1]
Silence loud and wind so long
The quiet building in the dark
Surrender to the game
I saw the light today

[Verse 2]
The silent scream that we're apart
I dare to dream, for there you are
I bleed, but I won't break
I saw the light today


[Chorus]
I saw the light today
I saw the light today
Today... Today...
Suggest correction
Give kudos to tab author, rate the tab!
1 2 3 4 5
comments
print report bad tab
guest
You may want to rate the tab now too:
select rating
Wanna post a correction for this tab? Suggest correction