Oops, an error
Loading. Please wait.

Once In A While Ukulele Chords

version 1
version 1

Whole song

  • Use the chords as noted. Strumming pattern can be ... Show more

Interactive

64 views 9 this week
1 commentread comment
1 2 3 4 5
2 more votes to show rating
add to favorites
launch autoscroll
font size
0
reset
transpose
0
reset
simplify chords
display chords
guitar tuner
Autoscroll
slow
fast
+/-
esc
set tempo
stop
Help us to improve Ultimate-Guitar.com Take our survey!
×
Author
Difficulty
intermediate
About this tab version
Use the chords as noted. Strumming pattern can be used for the verse with little changes. Was this info helpful? Yes No
Strumming
Verse 120 bpm
1
 
&
 
2
 
&
 
3
 
&
 
Play
Is this strumming pattern correct? Yes No
Chords used:


   F     D7     A#6     D#6     Bb     E7     A     Bm7     Bm6     Cm6

A--0-----0------1--------1-------1-----2------0------2--------2------3-------------
E--1-----2------3--------3-------1-----0------0------2--------4------5------------
C--0-----0------2--------0-------2-----2------1------2--------2------3-------------
G--2-----2------3--------3-------3-----1------2------2--------4------5-------------



[Verse 1]

F                        D7
Once in a while will you try to give
           A#6 
One little thought to me
       D#6
Though someone else may be
           F
Nearer to your heart?



[Verse 2]

        D7
Will you dream of the moments
  A#6
I shared with you
          D#6
Before we drifted apart
          F        Bb      F      E7
Once in a while?



[Bridge]

          A          Bm7     Bm6
In love's smoldering embers
A             Bm7    Bm6
One spark may remain
   A              Bm7     Bm6
If love still can remember
    A     Cm6      A#6     D#6   
The spark may burn again



[Verse 3]

  F                 D7
I know that I'll be contented
                 A#6
With yesterday's memory
            D#6
Knowing you think of me
          F       Bb       F      E7
Once in a while



[Bridge]

          A          Bm7      Bm6
In love's smoldering embers
A             Bm7     Bm6
One spark may remain
   A              Bm7     Bm6
If love still can remember
    A     Cm6      A#6     D#6
The spark may burn again


[Verse 4]

  F                 D7
I know that I'll be contented
                 A#6
With yesterday's memory
            D#6
Knowing you think of me
D#6
Once in a while


[Outro]

A------------------------1--------1-------------5------------------------
E-----1-------1----------3----------------------1------------------------
C-------0-------0------------0--------0---------0------------------------
G---2-------2--------------0--------0-----------2------------------------
Suggest correction
Give kudos to tab author, rate the tab!
1 2 3 4 5
comments
print report bad tab
1 comment total.
0 reply
Scabbers 10 Oct 21, 2016 06:34 AM

Strumming pattern included, great, thats the way it should be!

guest
You may want to rate the tab now too:
select rating
Wanna post a correction for this tab? Suggest correction