Oops, an error
Loading. Please wait.

Rise tab

version 1
version 1

Whole song

19,715 views 51 this week
5 commentsread comments
1 2 3 4 5
x 16
add to favorites
×
Save as Personal and add changes to this tab that will be seen only by you. Learn more ›
×
You can save this tab as Personal to edit and correct it or add notes. All changes will be seen only by you. Learn more »
launch autoscroll
font size
0
reset
how to read this tab
guitar tuner
edit
Autoscroll
slow
fast
+/-
esc
set tempo
stop
Author
Tuning: standard

[Intro]
e|----------7----------------7--------------|
B|----8---8---8---8----8---8---8---8--------|
G|------7-------7--------7-------7-----7----|
D|-----------------------------------9------| x2
A|--10--------------10-------------------10-|
E|------------------------------------------|

     Such is                  never know.                
e|---5/7v--7--5--3--5/7v--7--5--3--0--2--0--|
B|---3-0---0--3--3--3-0---0--3--3--1--1--1--|
G|---0-0---0--0--0--0-0---0--0--0--0--0--0--|
D|---0-0---0--0--0--0-0---0--0--0--2--0--0--|
A|---x-x---x--x--x--x-x---x--x--x--3--3--3--|
E|---x-x---x--x--x--x-x---x--x--x--x--x--x--|

     Just where            will it grow.                
e|---5/7v--7--5--3--5/7v--7--5--3--0--2--0--|
B|---3-0---0--3--3--3-0---0--3--3--1--1--1--|
G|---0-0---0--0--0--0-0---0--0--0--0--0--0--|
D|---0-0---0--0--0--0-0---0--0--0--2--0--0--|
A|---x-x---x--x--x--x-x---x--x--x--3--3--3--|
E|---x-x---x--x--x--x-x---x--x--x--x--x--x--|

      Gonna rise            dark memories.                
e|---2---2--0--2--3---3--5--3---0--0--0-----|
B|---3---3--3--3--0---0--0--0---1--3--1-----|
G|---2---2--2--2--0---0--0--0---0--0--0-----|
D|---0---0--0--0--0---0--0--0---2--2--2-----|
A|---x---x--x--x--2---2--2--2---3--3--3-----|
E|---x---x--x--x--3---3--3--3---x--x--x-----|

      Gonna rise            into gold.                
e|---2---2--0--2--3---3--5--3---0--0--0-----|
B|---3---3--3--3--0---0--0--0---1--3--1-----|
G|---2---2--2--2--0---0--0--0---0--0--0-----|
D|---0---0--0--0--0---0--0--0---2--2--2-----|
A|---x---x--x--x--2---2--2--2---3--3--3-----|
E|---x---x--x--x--3---3--3--3---x--x--x-----|

[Instrumental]                
e|---3---5--2--3--5---0--0--0--0------------|
B|---0---0--3--3--3---1--3--1--0------------|
G|---0---0--2--2--2---0--0--0--0------------|
D|---0---0--0--0--0---2--2--2--2------------|
A|---x---x--x--x--x---3--3--3--3------------|
E|---x---x--x--x--x---x--x--x--x------------|

                        [>----------x3]
e|---3---3--3--2--3---5--0--0--0--0---------|
B|---3---5--3--3--3---3--1--3--1--0---------|
G|---0---0--0--2--2---2--0--0--0--0---------|
D|---0---0--0--0--0---0--2--2--2--2---------|
A|---x---x--x--x--x---x--3--3--3--3---------|
E|---x---x--x--x--x---x--x--x--x--x---------|

     Such is                    to fold.                
e|---5/7v--7--5--3--5/7v--7--5--3--0--2--0--|
B|---3-0---0--3--3--3-0---0--3--3--1--1--1--|
G|---0-0---0--0--0--0-0---0--0--0--0--0--0--|
D|---0-0---0--0--0--0-0---0--0--0--2--0--0--|
A|---x-x---x--x--x--x-x---x--x--x--3--3--3--|
E|---x-x---x--x--x--x-x---x--x--x--x--x--x--|

     And suddenly              and behold.                
e|---5/7v--7--5--3--5/7v--7--5--3--0--2--0--|
B|---3-0---0--3--3--3-0---0--3--3--1--1--1--|
G|---0-0---0--0--0--0-0---0--0--0--0--0--0--|
D|---0-0---0--0--0--0-0---0--0--0--2--0--0--|
A|---x-x---x--x--x--x-x---x--x--x--3--3--3--|
E|---x-x---x--x--x--x-x---x--x--x--x--x--x--|

      Gonna rise              magnetically.                
e|---2---2--0--2--3---3--5--3---0--0--0-----|
B|---3---3--3--3--0---0--0--0---1--3--1-----|
G|---2---2--2--2--0---0--0--0---0--0--0-----|
D|---0---0--0--0--0---0--0--0---2--2--2-----|
A|---x---x--x--x--2---2--2--2---3--3--3-----|
E|---x---x--x--x--3---3--3--3---x--x--x-----|

      Gonna rise            in the hole.        
                               [>-------x2]
e|---2---2--0--2--3---3--5--3---0--2--3-----|
B|---3---3--3--3--0---0--0--0---1--3--1-----|
G|---2---2--2--2--0---0--0--0---0--0--0-----|
D|---0---0--0--0--0---0--0--0---2--0--2-----|
A|---x---x--x--x--2---2--2--2---3--3--3-----|
E|---x---x--x--x--3---3--3--3---x--x--x-----|

[Outro]       
e|---2---2--0--2--3---3--5--3---0--0--0-----|
B|---3---3--3--3--0---0--0--0---1--3--1-----|
G|---2---2--2--2--0---0--0--0---0--0--0-----| x2
D|---0---0--0--0--0---0--0--0---2--2--2-----|
A|---x---x--x--x--2---2--2--2---3--3--3-----|
E|---x---x--x--x--3---3--3--3---x--x--x-----|

    [>--------x2]
e|--7v--5--3--5---2--3--5--0--2--3--2--0--3-|
B|--8v--3--3--3---3--3--3--1--1--1--1--3--0-|
G|--0---0--0--0---2--2--2--0--0--0--0--0--0-|
D|--0---0--0--0---0--0--0--2--0--0--0--0--0-|
A|--x---x--x--x---x--x--x--3--3--3--3--3--2-|
E|--x---x--x--x---x--x--x--x--x--x--x--x--3-|


************************************

| /  Slide up
| x  Dead note

************************************
Suggest correction
Creating personal tab
Creating personal tab
You can edit any tab online and save it as your Personal.

You can edit, replace or remove any tab part or add personal notes – all changes will be seen only by you.

Personal tabs can be accessed anytime from any device, even offline.
Learn more »
comments
print report bad tab
5 comments total. Showing first comments.
-2 reply
ehbacon 528 Jul 17, 2014 12:47 PM

Lack of formatting. Lack of accuracy. Clearly wrong.

+2 reply
dal-k-pone91 10 Feb 07, 2015 05:02 PM

If you see the cover in Youtube, is the same! love it! I have been searching for this tab along time, sounds mint, thanks!

+1 reply
StonedGeologist 10 May 17, 2017 04:18 PM

Thank you man great tab !

guest
You may want to rate the tab now too:
select rating
Wanna post a correction for this tab? Suggest correction