Oops, an error
Loading. Please wait.

Setting Forth Chords

82,395 views 21 this week
3 commentsread comments
1 2 3 4 5
x 26
add to favorites
launch autoscroll
font size
0
reset
transpose
0
reset
display chords
guitar tuner
Autoscroll
slow
fast
+/-
esc
set tempo
stop
Help us to improve Ultimate-Guitar.com Take our survey!
×
Difficulty
Tuning
novice
E A D G B E
Eddie Vedder
Setting Forth
Into The Wild OST


[Intro]

3x

e-------------0-------------------
B-------10------10--10------------
G-----7---7-------7---------------
D---0-----------------------------
A---------------------------------
E---------------------------------

At the end:

e---3---2---3--------
B---3---3---3--------
G---2---2---2---0----
D---0---0-------2----
A---------------2----
E---------------0----



[Verse 1]

D  Em
   Being, no concern
D  Em
   Point of no return
D  Em
   Go forward and reverse
D  G             A
   This I will recall
D  G                  A
   Yeah, every time I fall


[Chorus]

D A  Em                   G
Keep setting forth in the universe
D A  Em                   G
Keep setting forth in the universe


[Bridge]

Em          G
Out here realigned
                Em
A planet out of sight
                    G   A
On nature drunk and high


[Chorus]

D  A    Em  G
Keep...
D  A    Em  G
Keep...


[Instrumental]

D  A    Em  G


[Outro]

D - Em (x2)
Suggest correction
comments
print report bad tab
3 comments total.
+4 reply
Gostop01 10 Dec 02, 2008 09:19 PM

Play this 3 Times for the intro
e-------------0-------------------
B-------10------10--10------------
G-----7---7-------7---------------
D---0----------------------------
A---------------------------------
E---------------------------------

0 reply
emiliovic97 10 Jan 16, 2016 10:41 AM

Chords are right?

Somebody answer me, please.
Thank You

0 reply
mschuster324 63 Feb 09, 2016 07:31 PM

the chords sound right if you play along with the song.

guest
You may want to rate the tab now too:
select rating
Wanna post a correction for this tab? Suggest correction