Oops, an error
Loading. Please wait.
We have an official Society tab made by UG professional guitarists. Check out the tab »
×

Society Chords

version 2
version 2

Whole song

Interactive

1,463,389 views 3,432 this week
35 commentsread comments
1 2 3 4 5
x 974
add to favorites
launch autoscroll
font size
0
reset
transpose
0
reset
display chords
guitar tuner
Autoscroll
slow
fast
+/-
esc
set tempo
stop
Difficulty
Tuning
novice
E A D G B E
Strumming Is this strumming pattern correct? Yes No
Whole Song 162 bpm
1
&
2
&
3
&
4
&
Listen
[Intro]

Bm


[Verse]

D          A          D
Oh, it's a mystery to me
          D          G             A         
We have a greed with which we have agreed
        G                 A                  Bm
And you think you have to want more than you need
   G              A                Bm 
Until you have it all you won't be free


[Chorus]

    G                   D
Society, you're a crazy breed
                A              Bm
Hope you're not lonely without me...


[Verse]

          D                 A                  D
When you want more than you have you think you need...
             D                   G                  A   
And when you think more than you want your thoughts begin to bleed
  G               A             Bm
I think I need to find a bigger place
                 G                  A                   Bm
Because when you have more than you think you need more space


[Chorus]

    G                   D
Society, you're a crazy breed
                A              Bm
Hope you're not lonely without me...
    G             D
Society, crazy indeed
                A              Bm
Hope you're not lonely without me...


[Solo]
 
D   A   D  
D   G   A     
G   A   Bm     
G   A   Bm 
G   D   A   Bm


[Verse]

        D               A                     D
There's those thinking, more-or-less, less is more
       D             G               A  
But if less is more, how you keeping score?
          G               A                Bm
Means for every point you make, your level drops
G                 A                 Bm
Kinda like you're starting from the top, you can't do that...


[Chorus]

    G                   D
Society, you're a crazy breed
                A              Bm
Hope you're not lonely without me...
    G          D
Society, crazy indeed
                A              Bm
Hope you're not lonely without me...

    G                  D
Society, have mercy on me
                A              Bm
Hope you're not angry if I disagree...
    G             D
Society, crazy indeed
                A                Bm
Hope you're not lonely...without me...
Suggest correction
comments
print report bad tab
35 comments total. Showing first comments.
+4 reply
cnorthern 61 Jan 27, 2008 05:05 PM

Sounds perfect to me. Thanks for posting this!

+2 reply
Tracer_Bullet 10 Mar 24, 2008 11:06 AM

Good job. Sounds great

+13 reply
dsidebo 10 Apr 08, 2008 08:29 PM

Hopefully cleaned that up. Solo sounds good.

---------------------------------------------------|
---------------------------------------------------|
------7---77--99--7h9-11--7-11-14---14/16--16-14---|
---7h9---------------------------------------------|
---------------------------------------------------|
---------------------------------------------------|

---------------------------------------------------|
----7-8-8-7-------7-7-7----------------------------|
--7---------9--7h9------9-7--------7-7-7h9+--9-9-7+|
----------------------------9--7h9----------------9|
---------------------------------------------------|
---------------------------------------------------|

---------------------------------------------------|
----88~8-8-8p7~7--7--------------------------------|
-------------------9-7-9--9-9-7+-------------------|
--------------------------------9------------------|
---------------------------------------------------|
---------------------------------------------------|

guest
You may want to rate the tab now too:
select rating
Wanna post a correction for this tab? Suggest correction