Oops, an error
Loading. Please wait.

Tonight You Belong To Me ukulele

version 3
version 3

Whole song

Interactive

721 views 30 this week
2 commentsread comments
1 2 3 4 5
x 11
add to favorites
×
Save as Personal and add changes to this tab that will be seen only by you. Learn more ›
×
You can save this tab as Personal to edit and correct it or add notes. All changes will be seen only by you. Learn more »
launch autoscroll
font size
0
reset
transpose
0
reset
simplify chords
display chords
guitar tuner
edit
Autoscroll
slow
fast
+/-
esc
set tempo
stop
Author
About this tab version
Version based on the original audio:. Was this info helpful? Yes No
Strumming
There is no strumming pattern for this song yet. and get +5 IQ
Artist: Eddie Vedder
Song: Tonight you belong to me
Album: Ukulele Songs

Ukulele Chords/Tab By:
I. G. Gutiérrez-Carranza

[Intro]
    G     Gsus4  G     G     Gsus4  G
a|--2-2-2-2-3-2-----|--2-2-2-2-3-2-----|
E|--3-3-3-3-3-3--3--|--3-3-3-3-3-3--3--|
C|--2-2-2-2-2-2-----|--2-2-2-2-2-2-----|
g|--0-0-0-0-0-0-----|--0-0-0-0-0-0-----|

[Verse 1]
    G                     G7       Cmaj7        Cm
a|--2------------------|--2------|--2--------|--3------------|
E|--3------------------|--1------|--0--------|--3------------|
C|--2------------------|--2------|--0--------|--3------------|
g|--0------------------|--0------|--0--------|--0------------|
  I know (I know)   you belong,  to somebody    new,   but...

    G Gsus2 G      D
a|--2---0---2---|--5-----------|
E|--3---3---3---|--2-----------|
C|--2---2---2---|--2-----------|
g|--0---0---0---|--2-----------|
  tonight    you belong   to...

    G     Gsus4  G     Cm          Gmaj7  Gmaj7sus2
a|--2-2-2-2-3-2-----|--5-5-5--3--|--2-2-2--0--|
E|--3-3-3-3-3-3--3--|--3-3-3--3--|--2-2-2--2--|
C|--2-2-2-2-2-2-----|--3-3-3--3--|--2-2-2--2--|
g|--0-0-0-0-0-0-----|--0-0-0--0--|--0-0-0--0--|
    me

[Verse 2]
    G                        G7               Cmaj7        Cm
a|--2---------------------|--2--------------|--2---------|--3--------------|
E|--3---------------------|--1--------------|--0---------|--3--------------|
C|--2---------------------|--2--------------|--0---------|--3--------------|
g|--0---------------------|--0--------------|--0---------|--0--------------|
  although (although) we're apart,   you are a part   of my heart,   but...

    G Gsus2 G      D
a|--2---0---2---|--5-----------|
E|--3---3---3---|--2-----------|
C|--2---2---2---|--2-----------|
g|--0---0---0---|--2-----------|
  tonight    you belong   to...

    G     Gsus4  G     G Gsus4 G5    F6 Fmaj7 F
a|--2-2-2-2-3-2-----|--2---3---5--|--5----7---8---|
E|--3-3-3-3-3-3--3--|--3---3---3--|--5----5---5---|
C|--2-2-2-2-2-2-----|--2---2---2--|--5----5---5---|
g|--0-0-0-0-0-0-----|--0---0---0--|--5----5---5---|
    me                                        wait...

[Verse 3]
    Cm
a|--6-------------|-------------|----------------|---------------|
E|--3-------------|-------------|----------------|---------------|
C|--3-------------|-------------|----------------|---------------|
g|--x-------------|-------------|----------------|---------------|
    down,   by the stream,   how sweet,   it will seem,   once...

    G               Aadd9           D7
a|--2------------|--2------------|--3----------|--x-x-x-x------|
E|--3------------|--0------------|--2----------|--x-x-x-x------|
C|--2------------|--1------------|--2----------|--x-x-x-x------|
g|--0------------|--2------------|--2----------|--x-x-x-x------|
    more,   just to dream in,   the moonlight,    my honey I...

[Verse 4]
    G                        G7           Cmaj7          Cm
a|--2---------------------|--2---------|--2-----------|--3-------------|
E|--3---------------------|--1---------|--0-----------|--3-------------|
C|--2---------------------|--2---------|--0-----------|--3-------------|
g|--0---------------------|--0---------|--0-----------|--0-------------|
    know (I know)   with the dawn,   that you,   will be gone,   but...

    G Gsus2 G      D
a|--2---0---2---|--5-----------|
E|--3---3---3---|--2-----------|
C|--2---2---2---|--2-----------|
g|--0---0---0---|--2-----------|
  tonight    you belong   to...

    G     Gsus4  G     Cm
a|--2-2-2-2-3-2-----|--3--------|
E|--3-3-3-3-3-3--3--|--3--------|
C|--2-2-2-2-2-2-----|--3--------|
g|--0-0-0-0-0-0-----|--0--------|
    me                    but...

[Outro]
    G             D7  D
a|--2----------|--3---5-------|
E|--3----------|--2---2-------|
C|--2----------|--2---2-------|
g|--0----------|--2---2-------|
  tonight   you belong   to...

    G
a|--2--------2--------2--|
E|-----3--------3-----3--|
C|--------2--------2--2--|
g|--0-----------------0--|
    me


************************************

End

************************************
Suggest correction
Creating personal tab
Creating personal tab
You can edit any tab online and save it as your Personal.

You can edit, replace or remove any tab part or add personal notes – all changes will be seen only by you.

Personal tabs can be accessed anytime from any device, even offline.
Learn more »
comments
print report bad tab
2 comments total.
+2 reply
beatboy65 4,664 Feb 13, 2017 04:44 AM

Good work-- nice tab. Thanks for posting it.

+1 reply
acevedodamian 10 Jun 04, 2017 10:14 PM

excellent

guest
You may want to rate the tab now too:
select rating
Wanna post a correction for this tab? Suggest correction