Oops, an error
Loading. Please wait.

Tuolumne Tab

version 2
version 2

Whole song

Interactive

Video

18,612 views 48 this week
2 commentsread comments
1 2 3 4 5
excellent!
x 29
add to favorites
launch autoscroll
font size
0
reset
how to read this tab
guitar tuner
Tab Pro tools
  • play this tab
  • loop segment
  • change instrument
  • show fretboard
  • metronome
×
Best way to learn
"Tuolumne"
Autoscroll
slow
fast
+/-
esc
set tempo
stop
Contributor
Difficulty
intermediate
Well, upon listening to, and playing this song I heard a bit more of a Dust In the Wind 
of picking pattern (which since the picking is a little slower you may find helpful in 
the pattern down) , and I didn't notice any tabs with the whole thing, so, here goes:


E-----------------------------1-------1-----0-------0-----|
B-1-------1-----3-------3---------1-------1-----1-------1-|
G-----0-------0-----0-------0---0-------0-----0-------0---|
D---2-------2-----2-------2-------------------------------|
A-3-----3-------3-----3-------3-----3-------3-----3-------|
E---------------------------------------------------------|

   The above is played four times then goes into:
E----------------------------------------------------------|
B-1--------1-----3-------3-----1-------1-----3-------3-----|
G-----2--------2-----2-------2-----2-------2-----2-------2-|
D---0--------0-----0-------0-----0-------0-----0-------0---|
A----------------------------------------------------------|
E-2------2-------2-----2-------2-----2-------2-----2-------|

E---------------------------------------------------------|
B-1-------1-----3-------3-----1-------1-----3-------3-1/3-|
G-----2-------2-----2-------2-----2-------2-----2---------|
D---0-------0-----0-------0-----0-------0-----0-----------|
A---------------------------------------------------------|
E-1-----1-------1-----1-------1-----1-------1-----1-------|

   Then this twice:
E-----------------------------3-------3-----0-------0-----|
B-1-------1-----3-------3---------1-------1-----1-------1-|
G-----0-------0-----0-------0---0-------0-----0-------0---|
D---2-------2-----2-------2-------------------------------|
A-3-----3-------3-----3-------3-----3-------3-----3-------|
E---------------------------------------------------------|

   Ditto for this:
E-----------------------------1-------1-----0-------0-----|
B-1-------1-----3-------3---------1-------1-----1-------1-|
G-----0-------0-----0-------0---0-------0-----0-------0---|
D---2-------2-----2-------2-------------------------------|
A-3-----3-------3-----3-------3-----3-------3-----3-------|
E---------------------------------------------------------|

   And it ends with that second part:
E----------------------------------------------------------|
B-1--------1-----3-------3-----1-------1-----3-------3-----|
G-----2--------2-----2-------2-----2-------2-----2-------2-|
D---0--------0-----0-------0-----0-------0-----0-------0---|
A----------------------------------------------------------|
E-2------2-------2-----2-------2-----2-------2-----2-------|

E---------------------------------------------------------|
B-1-------1-----3-------3-----1-------1-----3-------3-1/3-|
G-----2-------2-----2-------2-----2-------2-----2---------|
D---0-------0-----0-------0-----0-------0-----0-----------|
A---------------------------------------------------------|
E-1-----1-------1-----1-------1-----1-------1-----1-------|

It looks a lot harder than it is, I promise. Good luck!
comments
print report bad tab
2 comments total.
0 reply
robchill wrote on March 16 2016, 08:18 pm, edited at 11:14 pm

Thanks for posting this tab! However when I play along to the original song, it sounds like the second (and end) part goes more like this: E----------------------------------------------------------|B-1--------1-----3-------3-----1-------1-----3-------3-----|G-----2--------2-----2-------2-----2-------2-----2-------2-|D---0--------0-----0-------0-----0-------0-----0-------0---|A----------------------------------------------------------|E-2------2-------2-----2-------2-----2-------2-----2-------|E---------------------------------------------------------|B-3-------3-----1-------1-----3-------3-----1-------0h1---|G-----2-------2-----2-------2-----2-------2---------------|D---0-------0-----0-------0-----0-------0-----------------|A---------------------------------------------------------|E-1-----1-------1-----1-------1-----1-------1-------------|

0 reply
robchill wrote on March 16 2016, 11:17 pm

Thanks for posting this tab! However when I play along to the original song, it sounds like the second (and end) part goes more like this:

E----------------------------------------------------------|
B-1--------1-----3-------3-----1-------1-----3-------3-----|
G-----2--------2-----2-------2-----2-------2-----2-------2-|
D---0--------0-----0-------0-----0-------0-----0-------0---|
A----------------------------------------------------------|
E-2------2-------2-----2-------2-----2-------2-----2-------|

E---------------------------------------------------------|
B-3-------3-----1-------1-----3-------3-----1-------0h1---|
G-----2-------2-----2-------2-----2-------2---------------|
D---0-------0-----0-------0-----0-------0-----------------|
A---------------------------------------------------------|
E-1-----1-------1-----1-------1-----1-------1-------------|

I want to post or [tab]
guest
You may want to rate the tab now too:
select rating
Please do not post tabs as comments. Select "correction" instead!